0
SECTION
2
HEADER
9
$MEASUREMENT
70
1
0
ENDSEC
0
SECTION
2
TABLES
0
TABLE
2
LTYPE
0
LTYPE
72
65
70
64
2
CONTINUOUS
3
______
73
0
40
0
0
ENDTAB
0
TABLE
2
LAYER
0
LAYER
2
DEFAULT_255_2_778
70
0
62
255
6
CONTINUOUS
0
LAYER
2
DEFAULT_255_1_234
70
0
62
255
6
CONTINUOUS
0
ENDTAB
0
ENDSEC
0
SECTION
2
ENTITIES
0
LINE
8
DEFAULT_255_2_778
10
17.3301335
20
2.5135499
11
6.7468335
21
2.5135499
0
LINE
8
DEFAULT_255_2_778
10
6.7468335
20
2.5135499
11
6.7468335
21
10.4510499
0
LINE
8
DEFAULT_255_2_778
10
6.7468335
20
10.4510499
11
17.3301335
21
10.4510499
0
LINE
8
DEFAULT_255_2_778
10
17.3301335
20
10.4510499
11
17.3301335
21
2.5135499
0
LINE
8
DEFAULT_255_2_778
10
9.3927
20
2.5135499
11
9.3927
21
10.4510499
0
LINE
8
DEFAULT_255_2_778
10
12.0385
20
2.5135499
11
12.0385
21
10.4510499
0
LINE
8
DEFAULT_255_2_778
10
14.6844
20
5.1593499
11
14.6844
21
-2.7781501
0
LINE
8
DEFAULT_255_2_778
10
14.6844
20
7.8051499
11
14.6844
21
15.7426499
0
LINE
8
DEFAULT_255_2_778
10
17.3301834
20
4.101
11
17.5505834
21
5.6885
0
LINE
8
DEFAULT_255_2_778
10
17.5505834
20
5.6885
11
17.9916834
21
2.5135
0
LINE
8
DEFAULT_255_2_778
10
17.9916834
20
2.5135
11
18.4326834
21
5.6885
0
LINE
8
DEFAULT_255_2_778
10
18.4326834
20
5.6885
11
18.8734834
21
2.5135
0
LINE
8
DEFAULT_255_2_778
10
18.8734834
20
2.5135
11
19.3145834
21
5.6885
0
LINE
8
DEFAULT_255_2_778
10
19.3145834
20
5.6885
11
19.7555834
21
2.5135
0
LINE
8
DEFAULT_255_2_778
10
19.7555834
20
2.5135
11
19.9759834
21
4.101
0
LINE
8
DEFAULT_255_2_778
10
13.89065
20
5.1593
11
15.47815
21
5.1593
0
LINE
8
DEFAULT_255_2_778
10
13.89065
20
7.8052
11
15.47815
21
7.8052
0
LINE
8
DEFAULT_255_2_778
10
8.8635333
20
8.5989416
11
9.9218333
21
8.5989416
0
LINE
8
DEFAULT_255_2_778
10
9.9218333
20
8.5989416
11
9.3927333
21
10.4510416
0
LINE
8
DEFAULT_255_2_778
10
9.3927333
20
10.4510416
11
8.8635333
21
8.5989416
0
LINE
8
DEFAULT_255_2_778
10
6.7468834
20
3.4396
11
4.1010834
21
3.4396
0
LINE
8
DEFAULT_255_2_778
10
6.7468834
20
5.0271
11
4.1010834
21
5.0271
0
LINE
8
DEFAULT_255_2_778
10
4.101
20
2.6458
11
4.101
21
5.8208
0
LINE
8
DEFAULT_255_2_778
10
8.8635333
20
4.3656416
11
9.9218333
21
4.3656416
0
LINE
8
DEFAULT_255_2_778
10
9.9218333
20
4.3656416
11
9.3927333
21
2.5135416
0
LINE
8
DEFAULT_255_2_778
10
9.3927333
20
2.5135416
11
8.8635333
21
4.3656416
0
LINE
8
DEFAULT_255_1_234
10
12.1697137
20
-0.6674567
11
12.1697137
21
-1.8425
0
LINE
8
DEFAULT_255_1_234
10
12.1697137
20
-1.8425
11
12.0203234
21
-1.8425
0
LINE
8
DEFAULT_255_1_234
10
12.0203234
20
-1.8425
11
12.0203234
21
-0.8521867
0
LINE
8
DEFAULT_255_1_234
10
12.0203234
20
-0.8521867
11
11.7207396
21
-0.9622215
0
LINE
8
DEFAULT_255_1_234
10
11.7207396
20
-0.9622215
11
11.7207396
21
-0.8272883
0
LINE
8
DEFAULT_255_1_234
10
11.7207396
20
-0.8272883
11
12.1464217
21
-0.6674567
0
LINE
8
DEFAULT_255_1_234
10
12.1464217
20
-0.6674567
11
12.1697137
21
-0.6674567
0
LINE
8
DEFAULT_255_1_234
10
12.4394119
20
13.5753792
11
12.4394119
21
13.4541
0
LINE
8
DEFAULT_255_1_234
10
12.4394119
20
13.4541
11
11.673184
21
13.4541
0
LINE
8
DEFAULT_255_1_234
10
11.673184
20
13.4541
11
11.673184
21
13.5609221
0
LINE
8
DEFAULT_255_1_234
10
11.673184
20
13.5609221
11
12.0779836
21
14.0106995
0
LINE
8
DEFAULT_255_1_234
10
11.7992823
20
14.2789595
11
11.6506952
21
14.2789595
0
LINE
8
DEFAULT_255_1_234
10
12.1655296
20
13.9151218
11
11.8522918
21
13.5753792
0
LINE
8
DEFAULT_255_1_234
10
11.8522918
20
13.5753792
11
12.4394119
21
13.5753792
0
ARC
8
DEFAULT_255_1_234
10
10.728967
20
15.2036527
40
1.8008286
50
318.5132453
51
320.7828378
0
ARC
8
DEFAULT_255_1_234
10
11.2576644
20
14.7733426
40
1.1191493
50
320.7372736
51
323.9737074
0
ARC
8
DEFAULT_255_1_234
10
11.6496501
20
14.4893361
40
0.6350923
50
323.8961724
51
328.6421089
0
ARC
8
DEFAULT_255_1_234
10
11.8543096
20
14.3631031
40
0.3946393
50
328.8299013
51
331.789948
0
ARC
8
DEFAULT_255_1_234
10
11.9540274
20
14.3116509
40
0.2824501
50
331.4255242
51
352.9364833
0
ARC
8
DEFAULT_255_1_234
10
11.9676775
20
14.3085976
40
0.2685315
50
353.2248685
51
0.0169286
0
ARC
8
DEFAULT_255_1_234
10
11.9886652
20
14.310895
40
0.2475536
50
359.4866256
51
15.9339782
0
ARC
8
DEFAULT_255_1_234
10
12.0393637
20
14.3245286
40
0.1950618
50
16.1714718
51
43.5284424
0
ARC
8
DEFAULT_255_1_234
10
12.0470946
20
14.3322573
40
0.184134
50
43.4415429
51
83.1661404
0
ARC
8
DEFAULT_255_1_234
10
12.0336864
20
14.2585771
40
0.258926
50
82.160215
51
90.1505798
0
ARC
8
DEFAULT_255_1_234
10
12.0305291
20
14.2048865
40
0.3126255
50
89.5460705
51
102.5418777
0
ARC
8
DEFAULT_255_1_234
10
12.0062377
20
14.3079665
40
0.2067346
50
102.1739365
51
129.2061916
0
ARC
8
DEFAULT_255_1_234
10
11.9983449
20
14.3204094
40
0.1921118
50
129.7279328
51
135.7542026
0
ARC
8
DEFAULT_255_1_234
10
12.0104977
20
14.3107045
40
0.2075944
50
136.175737
51
166.3674722
0
ARC
8
DEFAULT_255_1_234
10
12.1111896
20
14.2837182
40
0.3118201
50
165.9092917
51
178.8683903
0
ARC
8
DEFAULT_255_1_234
10
12.1976757
20
14.2790179
40
0.3983935
50
178.438168
51
180.0083905
0
ARC
8
DEFAULT_255_1_234
10
12.0575359
20
14.2829231
40
0.4068601
50
163.2878735
51
180.5581814
0
ARC
8
DEFAULT_255_1_234
10
11.9773621
20
14.304984
40
0.3237344
50
133.454115
51
162.9470031
0
ARC
8
DEFAULT_255_1_234
10
11.9952162
20
14.286
40
0.349795
50
100.7869394
51
133.4384016
0
ARC
8
DEFAULT_255_1_234
10
12.0299934
20
14.1311319
40
0.5084616
50
89.6605301
51
101.3704185
0
ARC
8
DEFAULT_255_1_234
10
12.0366273
20
14.1372496
40
0.502348
50
78.2171172
51
90.4130393
0
ARC
8
DEFAULT_255_1_234
10
12.0721351
20
14.2996637
40
0.3361092
50
55.9268222
51
78.4888551
0
ARC
8
DEFAULT_255_1_234
10
12.0917791
20
14.3335324
40
0.2970617
50
47.9292255
51
55.4054003
0
ARC
8
DEFAULT_255_1_234
10
12.1019352
20
14.3438502
40
0.2825983
50
4.3347696
51
48.0560701
0
ARC
8
DEFAULT_255_1_234
10
11.9923745
20
14.3268601
40
0.393225
50
359.925209
51
5.5967654
0
ARC
8
DEFAULT_255_1_234
10
12.0352637
20
14.3324816
40
0.3503892
50
337.8914096
51
358.9967724
0
ARC
8
DEFAULT_255_1_234
10
11.7639049
20
14.4371706
40
0.6412172
50
326.9135351
51
338.3505194
0
ARC
8
DEFAULT_255_1_234
10
11.3653353
20
14.6926284
40
1.1146189
50
319.6472867
51
327.095818
0
ARC
8
DEFAULT_255_1_234
10
10.9820356
20
15.0088
40
1.6114559
50
317.2586784
51
319.9046139
0
ENDSEC
0
EOF