0
SECTION
2
HEADER
9
$MEASUREMENT
70
1
0
ENDSEC
0
SECTION
2
TABLES
0
TABLE
2
LTYPE
0
LTYPE
72
65
70
64
2
CONTINUOUS
3
______
73
0
40
0
0
ENDTAB
0
TABLE
2
LAYER
0
LAYER
2
DEFAULT_255_2_778
70
0
62
255
6
CONTINUOUS
0
LAYER
2
DEFAULT_255_1_234
70
0
62
255
6
CONTINUOUS
0
ENDTAB
0
ENDSEC
0
SECTION
2
ENTITIES
0
LINE
8
DEFAULT_255_2_778
10
9.3927002
20
10.4510499
11
25.2677002
21
10.4510499
0
LINE
8
DEFAULT_255_2_778
10
25.2677002
20
10.4510499
11
25.2677002
21
2.5135499
0
LINE
8
DEFAULT_255_2_778
10
25.2677002
20
2.5135499
11
9.3927002
21
2.5135499
0
LINE
8
DEFAULT_255_2_778
10
9.3927002
20
2.5135499
11
9.3927002
21
10.4510499
0
LINE
8
DEFAULT_255_2_778
10
17.3302
20
2.5135499
11
17.3302
21
10.4510499
0
LINE
8
DEFAULT_255_2_778
10
22.6219
20
-2.7781501
11
22.6219
21
5.1593499
0
LINE
8
DEFAULT_255_2_778
10
21.9604417
20
5.1593
11
23.2833417
21
5.1593
0
LINE
8
DEFAULT_255_2_778
10
19.9760417
20
2.5135499
11
19.9760417
21
10.4510499
0
LINE
8
DEFAULT_255_2_778
10
19.9760417
20
10.4510499
11
19.3145417
21
8.4666499
0
LINE
8
DEFAULT_255_2_778
10
19.3145417
20
8.4666499
11
20.6374417
21
8.4666499
0
LINE
8
DEFAULT_255_2_778
10
20.6374417
20
8.4666499
11
19.9760417
21
10.4510499
0
LINE
8
DEFAULT_255_2_778
10
12.0385
20
2.5135166
11
12.0385
21
5.1593166
0
LINE
8
DEFAULT_255_2_778
10
11.3770417
20
5.1593
11
12.6999417
21
5.1593
0
LINE
8
DEFAULT_255_2_778
10
19.976
20
15.7426333
11
19.976
21
10.4509333
0
LINE
8
DEFAULT_255_2_778
10
19.976
20
2.5135333
11
19.976
21
-2.7781667
0
LINE
8
DEFAULT_255_2_778
10
12.0385834
20
10.4510499
11
14.6843834
21
2.5135499
0
LINE
8
DEFAULT_255_2_778
10
14.6843834
20
2.5135499
11
14.6843834
21
4.6302499
0
LINE
8
DEFAULT_255_2_778
10
14.6843834
20
4.6302499
11
13.3614834
21
4.1010499
0
LINE
8
DEFAULT_255_2_778
10
13.3614834
20
4.1010499
11
14.6843834
21
2.5135499
0
LINE
8
DEFAULT_255_2_778
10
9.3926417
20
5.1593
11
8.0697417
21
5.1593
0
LINE
8
DEFAULT_255_2_778
10
6.7468417
20
3.8364166
11
8.0697417
21
5.1593166
0
LINE
8
DEFAULT_255_2_778
10
8.0697417
20
5.1593166
11
6.7468417
21
6.4822166
0
LINE
8
DEFAULT_255_2_778
10
6.7468417
20
6.4822166
11
6.7468417
21
3.8364166
0
LINE
8
DEFAULT_255_2_778
10
6.7468834
20
5.1593
11
4.1010834
21
5.1593
0
LINE
8
DEFAULT_255_2_778
10
25.2676834
20
3.7835
11
25.5616834
21
5.6885
0
LINE
8
DEFAULT_255_2_778
10
25.5616834
20
5.6885
11
26.0026834
21
2.5135
0
LINE
8
DEFAULT_255_2_778
10
26.0026834
20
2.5135
11
26.4437834
21
5.6885
0
LINE
8
DEFAULT_255_2_778
10
26.4437834
20
5.6885
11
26.8847834
21
2.5135
0
LINE
8
DEFAULT_255_2_778
10
26.8847834
20
2.5135
11
27.3258834
21
5.6885
0
LINE
8
DEFAULT_255_2_778
10
27.3258834
20
5.6885
11
27.7669834
21
2.5135
0
LINE
8
DEFAULT_255_2_778
10
27.7669834
20
2.5135
11
27.9134834
21
3.7835
0
LINE
8
DEFAULT_255_1_234
10
17.5296137
20
-0.6674567
11
17.5296137
21
-1.8425
0
LINE
8
DEFAULT_255_1_234
10
17.5296137
20
-1.8425
11
17.3802234
21
-1.8425
0
LINE
8
DEFAULT_255_1_234
10
17.3802234
20
-1.8425
11
17.3802234
21
-0.8521867
0
LINE
8
DEFAULT_255_1_234
10
17.3802234
20
-0.8521867
11
17.0806396
21
-0.9622215
0
LINE
8
DEFAULT_255_1_234
10
17.0806396
20
-0.9622215
11
17.0806396
21
-0.8272883
0
LINE
8
DEFAULT_255_1_234
10
17.0806396
20
-0.8272883
11
17.5063217
21
-0.6674567
0
LINE
8
DEFAULT_255_1_234
10
17.5063217
20
-0.6674567
11
17.5296137
21
-0.6674567
0
LINE
8
DEFAULT_255_1_234
10
18.1809877
20
-1.3067831
11
18.1809877
21
-1.1855038
0
LINE
8
DEFAULT_255_1_234
10
18.1809877
20
-1.1855038
11
18.2926289
21
-1.1855038
0
LINE
8
DEFAULT_255_1_234
10
18.1022767
20
-0.9798913
11
17.9536895
21
-0.9798913
0
LINE
8
DEFAULT_255_1_234
10
17.9432482
20
-1.5340812
11
18.0926386
21
-1.5340812
0
LINE
8
DEFAULT_255_1_234
10
18.2926289
20
-1.3067831
11
18.1809877
21
-1.3067831
0
ARC
8
DEFAULT_255_1_234
10
18.2897155
20
-0.8462287
40
0.3392876
50
270.4919872
51
281.8951556
0
ARC
8
DEFAULT_255_1_234
10
18.3138417
20
-0.9564298
40
0.2264817
50
281.6691735
51
301.2943132
0
ARC
8
DEFAULT_255_1_234
10
18.3308627
20
-0.9875696
40
0.1910381
50
301.7833094
51
311.7545298
0
ARC
8
DEFAULT_255_1_234
10
18.3400203
20
-0.9977252
40
0.1773635
50
311.7323931
51
354.2802411
0
ARC
8
DEFAULT_255_1_234
10
18.2673828
20
-0.9852278
40
0.2509385
50
353.0937916
51
0.1181479
0
ARC
8
DEFAULT_255_1_234
10
18.2212613
20
-0.9804614
40
0.2970898
50
359.1805295
51
15.0453146
0
ARC
8
DEFAULT_255_1_234
10
18.355845
20
-0.9412008
40
0.1569564
50
13.9577229
51
77.6713066
0
ARC
8
DEFAULT_255_1_234
10
18.3171979
20
-1.0797051
40
0.3006298
50
76.1116566
51
90.7026153
0
ARC
8
DEFAULT_255_1_234
10
18.3112817
20
-1.0523455
40
0.2732568
50
89.5324876
51
103.531937
0
ARC
8
DEFAULT_255_1_234
10
18.2912261
20
-0.9724116
40
0.1908508
50
103.2931773
51
133.5619022
0
ARC
8
DEFAULT_255_1_234
10
18.286775
20
-0.9664625
40
0.1834746
50
133.8349307
51
173.5344437
0
ARC
8
DEFAULT_255_1_234
10
18.3590793
20
-0.9792787
40
0.2568033
50
172.5096846
51
180.1366907
0
ARC
8
DEFAULT_255_1_234
10
18.2639687
20
-0.9758378
40
0.3103056
50
155.3484492
51
180.7484736
0
ARC
8
DEFAULT_255_1_234
10
18.2590776
20
-0.9787154
40
0.3070957
50
131.5744599
51
154.4798489
0
ARC
8
DEFAULT_255_1_234
10
18.2903923
20
-1.010369
40
0.3515643
50
96.9875458
51
131.9690667
0
ARC
8
DEFAULT_255_1_234
10
18.3123403
20
-1.1349364
40
0.4779224
50
89.8596053
51
97.7825159
0
ARC
8
DEFAULT_255_1_234
10
18.3171466
20
-1.1611384
40
0.5041361
50
78.3655447
51
90.4131539
0
ARC
8
DEFAULT_255_1_234
10
18.3529384
20
-0.9952113
40
0.3344039
50
56.6229102
51
78.638727
0
ARC
8
DEFAULT_255_1_234
10
18.3744328
20
-0.9576195
40
0.2912001
50
47.0253525
51
56.0854072
0
ARC
8
DEFAULT_255_1_234
10
18.3764108
20
-0.9536777
40
0.2869704
50
10.9208013
51
46.7778124
0
ARC
8
DEFAULT_255_1_234
10
18.2400174
20
-0.9852143
40
0.426899
50
359.6364486
51
11.6087304
0
ARC
8
DEFAULT_255_1_234
10
18.4235018
20
-0.9867248
40
0.243409
50
332.3549906
51
359.7179418
0
ARC
8
DEFAULT_255_1_234
10
18.358462
20
-0.9558858
40
0.3153459
50
325.2333722
51
332.8745602
0
ARC
8
DEFAULT_255_1_234
10
18.3737244
20
-0.9665172
40
0.2967456
50
292.9802137
51
325.2392345
0
ARC
8
DEFAULT_255_1_234
10
18.3462617
20
-0.9131137
40
0.3566604
50
292.5402179
51
293.6924929
0
ARC
8
DEFAULT_255_1_234
10
18.3855213
20
-1.5585909
40
0.3307468
50
57.6435486
51
72.8625112
0
ARC
8
DEFAULT_255_1_234
10
18.4209713
20
-1.5011451
40
0.2632492
50
36.7248896
51
57.4697979
0
ARC
8
DEFAULT_255_1_234
10
18.4198346
20
-1.499878
40
0.2634081
50
8.0545065
51
36.356114
0
ARC
8
DEFAULT_255_1_234
10
18.3335531
20
-1.5153826
40
0.3510261
50
359.8320645
51
8.5869982
0
ARC
8
DEFAULT_255_1_234
10
18.2960307
20
-1.5201899
40
0.3885653
50
343.9829931
51
0.5571613
0
ARC
8
DEFAULT_255_1_234
10
18.3846504
20
-1.5444562
40
0.2966924
50
311.6359546
51
343.7651759
0
ARC
8
DEFAULT_255_1_234
10
18.3468074
20
-1.5017898
40
0.3537231
50
279.7829875
51
311.6255694
0
ARC
8
DEFAULT_255_1_234
10
18.316685
20
-1.358072
40
0.5004971
50
269.7286406
51
280.3856417
0
ARC
8
DEFAULT_255_1_234
10
18.3104922
20
-1.3622004
40
0.4963778
50
256.6828919
51
270.4412052
0
ARC
8
DEFAULT_255_1_234
10
18.2766218
20
-1.5006606
40
0.3538406
50
229.4223008
51
256.8556159
0
ARC
8
DEFAULT_255_1_234
10
18.2351611
20
-1.5473264
40
0.2914296
50
181.818294
51
229.6455059
0
ARC
8
DEFAULT_255_1_234
10
18.3391567
20
-1.5342504
40
0.3959084
50
179.9755256
51
183.2323064
0
ARC
8
DEFAULT_255_1_234
10
18.3219313
20
-1.5362963
40
0.2293034
50
179.4465117
51
196.2869258
0
ARC
8
DEFAULT_255_1_234
10
18.2731721
20
-1.5496349
40
0.1787621
50
196.5661473
51
227.705904
0
ARC
8
DEFAULT_255_1_234
10
18.2895816
20
-1.5312845
40
0.2033784
50
227.7652068
51
257.8762805
0
ARC
8
DEFAULT_255_1_234
10
18.3120786
20
-1.4369844
40
0.3003081
50
257.4584385
51
270.426602
0
ARC
8
DEFAULT_255_1_234
10
18.3166352
20
-1.4080004
40
0.329292
50
269.5962073
51
280.8789248
0
ARC
8
DEFAULT_255_1_234
10
18.3395881
20
-1.5226315
40
0.2123908
50
280.6346389
51
299.8595945
0
ARC
8
DEFAULT_255_1_234
10
18.3586788
20
-1.5588788
40
0.171457
50
300.3576302
51
314.5517981
0
ARC
8
DEFAULT_255_1_234
10
18.3503848
20
-1.5528081
40
0.1816095
50
315.0728369
51
345.0431014
0
ARC
8
DEFAULT_255_1_234
10
18.2580662
20
-1.5259159
40
0.2777492
50
344.5986631
51
357.9269593
0
ARC
8
DEFAULT_255_1_234
10
18.1684989
20
-1.5197724
40
0.3674917
50
357.4748886
51
0.0231117
0
ARC
8
DEFAULT_255_1_234
10
18.2708098
20
-1.5173321
40
0.2651907
50
359.5047933
51
13.4239635
0
ARC
8
DEFAULT_255_1_234
10
18.3574741
20
-1.4951522
40
0.1757509
50
12.9498199
51
48.7551375
0
ARC
8
DEFAULT_255_1_234
10
18.3392475
20
-1.52006
40
0.2065134
50
49.5088623
51
72.1836453
0
ARC
8
DEFAULT_255_1_234
10
18.3034628
20
-1.6262709
40
0.3185836
50
71.9010081
51
84.3554254
0
ARC
8
DEFAULT_255_1_234
10
18.287326
20
-1.7623674
40
0.4556151
50
84.0193428
51
89.333121
0
LINE
8
DEFAULT_255_1_234
10
17.7318119
20
13.5753792
11
17.7318119
21
13.4541
0
LINE
8
DEFAULT_255_1_234
10
17.7318119
20
13.4541
11
16.965584
21
13.4541
0
LINE
8
DEFAULT_255_1_234
10
16.965584
20
13.4541
11
16.965584
21
13.5609221
0
LINE
8
DEFAULT_255_1_234
10
16.965584
20
13.5609221
11
17.3703836
21
14.0106995
0
LINE
8
DEFAULT_255_1_234
10
17.0916823
20
14.2789595
11
16.9430952
21
14.2789595
0
LINE
8
DEFAULT_255_1_234
10
17.4579296
20
13.9151218
11
17.1446918
21
13.5753792
0
LINE
8
DEFAULT_255_1_234
10
17.1446918
20
13.5753792
11
17.7318119
21
13.5753792
0
ARC
8
DEFAULT_255_1_234
10
16.021367
20
15.2036527
40
1.8008286
50
318.5132453
51
320.7828378
0
ARC
8
DEFAULT_255_1_234
10
16.5500644
20
14.7733426
40
1.1191493
50
320.7372736
51
323.9737074
0
ARC
8
DEFAULT_255_1_234
10
16.9420501
20
14.4893361
40
0.6350923
50
323.8961724
51
328.6421089
0
ARC
8
DEFAULT_255_1_234
10
17.1467096
20
14.3631031
40
0.3946393
50
328.8299013
51
331.789948
0
ARC
8
DEFAULT_255_1_234
10
17.2464274
20
14.3116509
40
0.2824501
50
331.4255242
51
352.9364833
0
ARC
8
DEFAULT_255_1_234
10
17.2600775
20
14.3085976
40
0.2685315
50
353.2248685
51
0.0169286
0
ARC
8
DEFAULT_255_1_234
10
17.2810652
20
14.310895
40
0.2475536
50
359.4866256
51
15.9339782
0
ARC
8
DEFAULT_255_1_234
10
17.3317637
20
14.3245286
40
0.1950618
50
16.1714718
51
43.5284424
0
ARC
8
DEFAULT_255_1_234
10
17.3394946
20
14.3322573
40
0.184134
50
43.4415429
51
83.1661404
0
ARC
8
DEFAULT_255_1_234
10
17.3260864
20
14.2585771
40
0.258926
50
82.160215
51
90.1505798
0
ARC
8
DEFAULT_255_1_234
10
17.3229291
20
14.2048865
40
0.3126255
50
89.5460705
51
102.5418777
0
ARC
8
DEFAULT_255_1_234
10
17.2986377
20
14.3079665
40
0.2067346
50
102.1739365
51
129.2061916
0
ARC
8
DEFAULT_255_1_234
10
17.2907449
20
14.3204094
40
0.1921118
50
129.7279328
51
135.7542026
0
ARC
8
DEFAULT_255_1_234
10
17.3028977
20
14.3107045
40
0.2075944
50
136.175737
51
166.3674722
0
ARC
8
DEFAULT_255_1_234
10
17.4035896
20
14.2837182
40
0.3118201
50
165.9092917
51
178.8683903
0
ARC
8
DEFAULT_255_1_234
10
17.4900757
20
14.2790179
40
0.3983935
50
178.438168
51
180.0083905
0
ARC
8
DEFAULT_255_1_234
10
17.3499359
20
14.2829231
40
0.4068601
50
163.2878735
51
180.5581814
0
ARC
8
DEFAULT_255_1_234
10
17.2697621
20
14.304984
40
0.3237344
50
133.454115
51
162.9470031
0
ARC
8
DEFAULT_255_1_234
10
17.2876162
20
14.286
40
0.349795
50
100.7869394
51
133.4384016
0
ARC
8
DEFAULT_255_1_234
10
17.3223934
20
14.1311319
40
0.5084616
50
89.6605301
51
101.3704185
0
ARC
8
DEFAULT_255_1_234
10
17.3290273
20
14.1372496
40
0.502348
50
78.2171172
51
90.4130393
0
ARC
8
DEFAULT_255_1_234
10
17.3645351
20
14.2996637
40
0.3361092
50
55.9268222
51
78.4888551
0
ARC
8
DEFAULT_255_1_234
10
17.3841791
20
14.3335324
40
0.2970617
50
47.9292255
51
55.4054003
0
ARC
8
DEFAULT_255_1_234
10
17.3943352
20
14.3438502
40
0.2825983
50
4.3347696
51
48.0560701
0
ARC
8
DEFAULT_255_1_234
10
17.2847745
20
14.3268601
40
0.393225
50
359.925209
51
5.5967654
0
ARC
8
DEFAULT_255_1_234
10
17.3276637
20
14.3324816
40
0.3503892
50
337.8914096
51
358.9967724
0
ARC
8
DEFAULT_255_1_234
10
17.0563049
20
14.4371706
40
0.6412172
50
326.9135351
51
338.3505194
0
ARC
8
DEFAULT_255_1_234
10
16.6577353
20
14.6926284
40
1.1146189
50
319.6472867
51
327.095818
0
ARC
8
DEFAULT_255_1_234
10
16.2744356
20
15.0088
40
1.6114559
50
317.2586784
51
319.9046139
0
LINE
8
DEFAULT_255_1_234
10
5.8705137
20
7.2705433
11
5.8705137
21
6.0955
0
LINE
8
DEFAULT_255_1_234
10
5.8705137
20
6.0955
11
5.7211234
21
6.0955
0
LINE
8
DEFAULT_255_1_234
10
5.7211234
20
6.0955
11
5.7211234
21
7.0858133
0
LINE
8
DEFAULT_255_1_234
10
5.7211234
20
7.0858133
11
5.4215396
21
6.9757785
0
LINE
8
DEFAULT_255_1_234
10
5.4215396
20
6.9757785
11
5.4215396
21
7.1107117
0
LINE
8
DEFAULT_255_1_234
10
5.4215396
20
7.1107117
11
5.8472217
21
7.2705433
0
LINE
8
DEFAULT_255_1_234
10
5.8472217
20
7.2705433
11
5.8705137
21
7.2705433
0
LINE
8
DEFAULT_255_1_234
10
7.0391316
20
6.7870327
11
7.0391316
21
6.5942709
0
LINE
8
DEFAULT_255_1_234
10
6.3010149
20
6.5741916
11
6.3010149
21
6.7725755
0
LINE
8
DEFAULT_255_1_234
10
6.8905445
20
6.5541123
11
6.8905445
21
6.7974739
0
LINE
8
DEFAULT_255_1_234
10
6.4496021
20
6.8087184
11
6.4496021
21
6.5709789
0
ARC
8
DEFAULT_255_1_234
10
5.8144206
20
6.5893805
40
1.2247208
50
353.8441951
51
0.2287902
0
ARC
8
DEFAULT_255_1_234
10
6.278371
20
6.5375806
40
0.7578929
50
344.4934747
51
353.9765454
0
ARC
8
DEFAULT_255_1_234
10
6.57763
20
6.4524981
40
0.4467846
50
329.2803592
51
344.7472793
0
ARC
8
DEFAULT_255_1_234
10
6.6769125
20
6.3980018
40
0.3336173
50
324.9352394
51
328.6160465
0
ARC
8
DEFAULT_255_1_234
10
6.7146233
20
6.3716427
40
0.2876076
50
280.580143
51
324.9173126
0
ARC
8
DEFAULT_255_1_234
10
6.6745026
20
6.5387099
40
0.4592847
50
269.5977311
51
281.6734359
0
ARC
8
DEFAULT_255_1_234
10
6.6672932
20
6.5267173
40
0.4472986
50
256.6228859
51
270.51044
0
ARC
8
DEFAULT_255_1_234
10
6.6270909
20
6.3718877
40
0.2873874
50
215.8618325
51
257.2788573
0
ARC
8
DEFAULT_255_1_234
10
6.7291941
20
6.4403977
40
0.4102928
50
197.9693508
51
215.2623606
0
ARC
8
DEFAULT_255_1_234
10
6.9777057
20
6.5242709
40
0.6725652
50
187.8816417
51
198.2346507
0
ARC
8
DEFAULT_255_1_234
10
7.3735265
20
6.5814079
40
1.0724845
50
180.8976217
51
188.0055519
0
ARC
8
DEFAULT_255_1_234
10
7.6535453
20
6.5917777
40
1.3526448
50
180.7449369
51
181.1510016
0
ARC
8
DEFAULT_255_1_234
10
7.4958182
20
6.7774042
40
1.1948131
50
173.7675579
51
180.231553
0
ARC
8
DEFAULT_255_1_234
10
7.0440329
20
6.8284666
40
0.7401564
50
164.3058563
51
173.9002247
0
ARC
8
DEFAULT_255_1_234
10
6.7528398
20
6.9123656
40
0.4371288
50
148.7922025
51
164.568378
0
ARC
8
DEFAULT_255_1_234
10
6.657685
20
6.9654929
40
0.3282386
50
144.5883898
51
148.1176286
0
ARC
8
DEFAULT_255_1_234
10
6.6233748
20
6.9894315
40
0.2864044
50
101.6440918
51
144.514236
0
ARC
8
DEFAULT_255_1_234
10
6.6658814
20
6.8205069
40
0.4604934
50
89.5284041
51
102.5819763
0
ARC
8
DEFAULT_255_1_234
10
6.6737902
20
6.8166018
40
0.464401
50
77.0437873
51
90.5081339
0
ARC
8
DEFAULT_255_1_234
10
6.7139904
20
6.9808615
40
0.2953195
50
48.2778575
51
77.4994676
0
ARC
8
DEFAULT_255_1_234
10
6.7212535
20
6.9937746
40
0.2808655
50
36.3142134
51
47.6305865
0
ARC
8
DEFAULT_255_1_234
10
6.6343842
20
6.9352515
40
0.3855453
50
18.2931786
51
35.6769206
0
ARC
8
DEFAULT_255_1_234
10
6.3800601
20
6.8479593
40
0.654423
50
8.024666
51
18.5605216
0
ARC
8
DEFAULT_255_1_234
10
5.9637521
20
6.7864792
40
1.0752407
50
1.1274072
51
8.1718305
0
ARC
8
DEFAULT_255_1_234
10
5.6401712
20
6.7737885
40
1.3990231
50
0.5424119
51
1.3863029
0
ARC
8
DEFAULT_255_1_234
10
5.8223089
20
6.8010342
40
1.0682415
50
359.8090433
51
4.9407866
0
ARC
8
DEFAULT_255_1_234
10
6.2433103
20
6.8386113
40
0.6455691
50
4.8362157
51
12.2904523
0
ARC
8
DEFAULT_255_1_234
10
6.5188218
20
6.8999965
40
0.3633074
50
12.0805627
51
23.8173984
0
ARC
8
DEFAULT_255_1_234
10
6.6361924
20
6.9496919
40
0.2358723
50
24.2871213
51
31.3935614
0
ARC
8
DEFAULT_255_1_234
10
6.6886621
20
6.9840233
40
0.1732111
50
30.7407893
51
82.4657128
0
ARC
8
DEFAULT_255_1_234
10
6.6706755
20
6.8956691
40
0.263235
50
81.1060089
51
90.2184952
0
ARC
8
DEFAULT_255_1_234
10
6.6671054
20
6.9214924
40
0.2374236
50
89.3806855
51
105.6762551
0
ARC
8
DEFAULT_255_1_234
10
6.6487685
20
6.9881567
40
0.1682847
50
105.7981136
51
149.7388061
0
ARC
8
DEFAULT_255_1_234
10
6.7551763
20
6.924195
40
0.2924306
50
149.4208916
51
163.6286378
0
ARC
8
DEFAULT_255_1_234
10
6.9642651
20
6.860425
40
0.5110213
50
163.3763315
51
172.1410975
0
ARC
8
DEFAULT_255_1_234
10
7.294337
20
6.8131518
40
0.8444586
50
172.0259487
51
178.0703232
0
ARC
8
DEFAULT_255_1_234
10
7.597346
20
6.7987906
40
1.1477868
50
177.8631668
51
179.5044149
0
ARC
8
DEFAULT_255_1_234
10
7.4900864
20
6.5673389
40
1.0404907
50
179.7995573
51
185.2460446
0
ARC
8
DEFAULT_255_1_234
10
7.0857903
20
6.5290513
40
0.6343885
50
185.1411642
51
193.0079639
0
ARC
8
DEFAULT_255_1_234
10
6.8214376
20
6.4665641
40
0.3627568
50
192.7897626
51
205.2507664
0
ARC
8
DEFAULT_255_1_234
10
6.7167923
20
6.4198415
40
0.2481908
50
205.8005384
51
211.2537509
0
ARC
8
DEFAULT_255_1_234
10
6.6644363
20
6.384758
40
0.1852521
50
210.3789793
51
238.4008143
0
ARC
8
DEFAULT_255_1_234
10
6.6624885
20
6.3894376
40
0.1882621
50
239.6520629
51
265.9793761
0
ARC
8
DEFAULT_255_1_234
10
6.6710085
20
6.4566427
40
0.2559272
50
265.1315437
51
270.060332
0
ARC
8
DEFAULT_255_1_234
10
6.6738864
20
6.4242534
40
0.2235528
50
269.3314664
51
287.2178029
0
ARC
8
DEFAULT_255_1_234
10
6.6876716
20
6.3739279
40
0.1714108
50
287.7958004
51
329.080874
0
ARC
8
DEFAULT_255_1_234
10
6.5919173
20
6.433693
40
0.2842745
50
328.6634704
51
343.3325132
0
ARC
8
DEFAULT_255_1_234
10
6.3746193
20
6.5013863
40
0.5118644
50
343.0499468
51
351.9393422
0
ARC
8
DEFAULT_255_1_234
10
6.0279493
20
6.5524949
40
0.8622784
50
351.8069023
51
357.7959224
0
ARC
8
DEFAULT_255_1_234
10
5.7044049
20
6.5692721
40
1.1862365
50
357.5871873
51
359.2677531
0
ENDSEC
0
EOF