0
SECTION
2
HEADER
9
$MEASUREMENT
70
1
0
ENDSEC
0
SECTION
2
TABLES
0
TABLE
2
LTYPE
0
LTYPE
72
65
70
64
2
CONTINUOUS
3
______
73
0
40
0
0
ENDTAB
0
TABLE
2
LAYER
0
LAYER
2
DEFAULT_255_2_778
70
0
62
255
6
CONTINUOUS
0
LAYER
2
DEFAULT_255_1_388
70
0
62
255
6
CONTINUOUS
0
ENDTAB
0
ENDSEC
0
SECTION
2
ENTITIES
0
LINE
8
DEFAULT_255_2_778
10
9.3927002
20
10.4510499
11
25.2677002
21
10.4510499
0
LINE
8
DEFAULT_255_2_778
10
25.2677002
20
10.4510499
11
25.2677002
21
2.5135499
0
LINE
8
DEFAULT_255_2_778
10
25.2677002
20
2.5135499
11
9.3927002
21
2.5135499
0
LINE
8
DEFAULT_255_2_778
10
9.3927002
20
2.5135499
11
9.3927002
21
10.4510499
0
LINE
8
DEFAULT_255_2_778
10
17.3302
20
2.5135499
11
17.3302
21
10.4510499
0
LINE
8
DEFAULT_255_2_778
10
22.6219
20
-2.7781501
11
22.6219
21
5.1593499
0
LINE
8
DEFAULT_255_2_778
10
21.9604417
20
5.1593
11
23.2833417
21
5.1593
0
LINE
8
DEFAULT_255_2_778
10
19.9760417
20
2.5135499
11
19.9760417
21
10.4510499
0
LINE
8
DEFAULT_255_2_778
10
19.9760417
20
10.4510499
11
19.3145417
21
8.4666499
0
LINE
8
DEFAULT_255_2_778
10
19.3145417
20
8.4666499
11
20.6374417
21
8.4666499
0
LINE
8
DEFAULT_255_2_778
10
20.6374417
20
8.4666499
11
19.9760417
21
10.4510499
0
LINE
8
DEFAULT_255_2_778
10
12.0385
20
2.5135166
11
12.0385
21
5.1593166
0
LINE
8
DEFAULT_255_2_778
10
11.3770417
20
5.1593
11
12.6999417
21
5.1593
0
LINE
8
DEFAULT_255_2_778
10
19.976
20
15.7426333
11
19.976
21
10.4509333
0
LINE
8
DEFAULT_255_2_778
10
19.976
20
2.5135333
11
19.976
21
-2.7781667
0
LINE
8
DEFAULT_255_2_778
10
12.0385834
20
10.4510499
11
14.6843834
21
2.5135499
0
LINE
8
DEFAULT_255_2_778
10
14.6843834
20
2.5135499
11
14.6843834
21
4.6302499
0
LINE
8
DEFAULT_255_2_778
10
14.6843834
20
4.6302499
11
13.3614834
21
4.1010499
0
LINE
8
DEFAULT_255_2_778
10
13.3614834
20
4.1010499
11
14.6843834
21
2.5135499
0
LINE
8
DEFAULT_255_2_778
10
9.3926417
20
5.1593
11
8.0697417
21
5.1593
0
LINE
8
DEFAULT_255_2_778
10
6.7468417
20
3.8364166
11
8.0697417
21
5.1593166
0
LINE
8
DEFAULT_255_2_778
10
8.0697417
20
5.1593166
11
6.7468417
21
6.4822166
0
LINE
8
DEFAULT_255_2_778
10
6.7468417
20
6.4822166
11
6.7468417
21
3.8364166
0
LINE
8
DEFAULT_255_2_778
10
6.7468834
20
5.1593
11
4.1010834
21
5.1593
0
LINE
8
DEFAULT_255_2_778
10
25.2676834
20
3.7835
11
25.5616834
21
5.6885
0
LINE
8
DEFAULT_255_2_778
10
25.5616834
20
5.6885
11
26.0026834
21
2.5135
0
LINE
8
DEFAULT_255_2_778
10
26.0026834
20
2.5135
11
26.4437834
21
5.6885
0
LINE
8
DEFAULT_255_2_778
10
26.4437834
20
5.6885
11
26.8847834
21
2.5135
0
LINE
8
DEFAULT_255_2_778
10
26.8847834
20
2.5135
11
27.3258834
21
5.6885
0
LINE
8
DEFAULT_255_2_778
10
27.3258834
20
5.6885
11
27.7669834
21
2.5135
0
LINE
8
DEFAULT_255_2_778
10
27.7669834
20
2.5135
11
27.9134834
21
3.7835
0
LINE
8
DEFAULT_255_1_388
10
17.4870985
20
-0.5089852
11
17.4870985
21
-1.8309
0
LINE
8
DEFAULT_255_1_388
10
17.4870985
20
-1.8309
11
17.3190355
21
-1.8309
0
LINE
8
DEFAULT_255_1_388
10
17.3190355
20
-1.8309
11
17.3190355
21
-0.716805
0
LINE
8
DEFAULT_255_1_388
10
17.3190355
20
-0.716805
11
16.982006
21
-0.8405934
0
LINE
8
DEFAULT_255_1_388
10
16.982006
20
-0.8405934
11
16.982006
21
-0.6887945
0
LINE
8
DEFAULT_255_1_388
10
16.982006
20
-0.6887945
11
17.4608951
21
-0.5089852
0
LINE
8
DEFAULT_255_1_388
10
17.4608951
20
-0.5089852
11
17.4870985
21
-0.5089852
0
LINE
8
DEFAULT_255_1_388
10
18.2198893
20
-1.2282225
11
18.2198893
21
-1.0917843
0
LINE
8
DEFAULT_255_1_388
10
18.2198893
20
-1.0917843
11
18.3454847
21
-1.0917843
0
LINE
8
DEFAULT_255_1_388
10
18.1313399
20
-0.8604718
11
17.9641805
21
-0.8604718
0
LINE
8
DEFAULT_255_1_388
10
17.9524342
20
-1.4839312
11
18.1204972
21
-1.4839312
0
LINE
8
DEFAULT_255_1_388
10
18.3454847
20
-1.2282225
11
18.2198893
21
-1.2282225
0
ARC
8
DEFAULT_255_1_388
10
18.3422074
20
-0.7101078
40
0.3816905
50
270.491971
51
281.8953028
0
ARC
8
DEFAULT_255_1_388
10
18.3693501
20
-0.8340801
40
0.2547877
50
281.6690378
51
301.2943765
0
ARC
8
DEFAULT_255_1_388
10
18.3884952
20
-0.8691074
40
0.2149197
50
301.7834992
51
311.754567
0
ARC
8
DEFAULT_255_1_388
10
18.3987993
20
-0.880535
40
0.1995326
50
311.7325027
51
354.2803031
0
ARC
8
DEFAULT_255_1_388
10
18.3170409
20
-0.866472
40
0.2823461
50
353.0941646
51
0.1174696
0
ARC
8
DEFAULT_255_1_388
10
18.2651967
20
-0.8611126
40
0.3342238
50
359.1804452
51
15.0452323
0
ARC
8
DEFAULT_255_1_388
10
18.4166026
20
-0.8169454
40
0.1765747
50
13.957816
51
77.6713812
0
ARC
8
DEFAULT_255_1_388
10
18.3731261
20
-0.9727536
40
0.3381982
50
76.111571
51
90.7028736
0
ARC
8
DEFAULT_255_1_388
10
18.3664673
20
-0.941975
40
0.3074046
50
89.5321574
51
103.5319393
0
ARC
8
DEFAULT_255_1_388
10
18.3439057
20
-0.8520557
40
0.2147041
50
103.2930114
51
133.5619756
0
ARC
8
DEFAULT_255_1_388
10
18.3388999
20
-0.8453649
40
0.2064084
50
133.8349761
51
173.5343225
0
ARC
8
DEFAULT_255_1_388
10
18.4202656
20
-0.8597856
40
0.2889266
50
172.5097183
51
180.1360699
0
ARC
8
DEFAULT_255_1_388
10
18.313242
20
-0.855912
40
0.3490913
50
155.3483706
51
180.7484035
0
ARC
8
DEFAULT_255_1_388
10
18.3077396
20
-0.8591481
40
0.3454798
50
131.5745177
51
154.4799474
0
ARC
8
DEFAULT_255_1_388
10
18.3429678
20
-0.8947578
40
0.3955058
50
96.9874487
51
131.9690874
0
ARC
8
DEFAULT_255_1_388
10
18.3676571
20
-1.0348593
40
0.537622
50
89.8592909
51
97.7827481
0
ARC
8
DEFAULT_255_1_388
10
18.373068
20
-1.064364
40
0.5671399
50
78.3654493
51
90.4132586
0
ARC
8
DEFAULT_255_1_388
10
18.4133321
20
-0.8777082
40
0.3762034
50
56.6229818
51
78.6387103
0
ARC
8
DEFAULT_255_1_388
10
18.437515
20
-0.8354154
40
0.3275964
50
47.0254604
51
56.085558
0
ARC
8
DEFAULT_255_1_388
10
18.4397401
20
-0.8309811
40
0.3228382
50
10.9207523
51
46.777927
0
ARC
8
DEFAULT_255_1_388
10
18.2862995
20
-0.8664599
40
0.4802559
50
359.6364235
51
11.6087615
0
ARC
8
DEFAULT_255_1_388
10
18.4927161
20
-0.8681596
40
0.273833
50
332.3549969
51
359.7179765
0
ARC
8
DEFAULT_255_1_388
10
18.4195562
20
-0.8334715
40
0.3547505
50
325.2332381
51
332.8746682
0
ARC
8
DEFAULT_255_1_388
10
18.4367144
20
-0.8454237
40
0.3338396
50
292.9803892
51
325.2391113
0
ARC
8
DEFAULT_255_1_388
10
18.405634
20
-0.7849321
40
0.4016959
50
292.542178
51
293.6931461
0
ARC
8
DEFAULT_255_1_388
10
18.4499912
20
-1.5114964
40
0.372079
50
57.643292
51
72.8626085
0
ARC
8
DEFAULT_255_1_388
10
18.4898747
20
-1.4468727
40
0.2961455
50
36.7246661
51
57.4701329
0
ARC
8
DEFAULT_255_1_388
10
18.4885903
20
-1.445453
40
0.2963321
50
8.054535
51
36.3561529
0
ARC
8
DEFAULT_255_1_388
10
18.3915576
20
-1.4628927
40
0.3948682
50
359.8316595
51
8.5873361
0
ARC
8
DEFAULT_255_1_388
10
18.349305
20
-1.468303
40
0.4371398
50
343.9831631
51
0.557075
0
ARC
8
DEFAULT_255_1_388
10
18.44901
20
-1.4956037
40
0.3337749
50
311.6358204
51
343.7652116
0
ARC
8
DEFAULT_255_1_388
10
18.4064353
20
-1.4476045
40
0.3979351
50
279.7829743
51
311.625622
0
ARC
8
DEFAULT_255_1_388
10
18.3725489
20
-1.2859358
40
0.5630417
50
269.7285092
51
280.3857694
0
ARC
8
DEFAULT_255_1_388
10
18.3655802
20
-1.2905759
40
0.5584119
50
256.6827433
51
270.4412869
0
ARC
8
DEFAULT_255_1_388
10
18.3274788
20
-1.4463302
40
0.3980715
50
229.4223821
51
256.8554507
0
ARC
8
DEFAULT_255_1_388
10
18.2808342
20
-1.4988317
40
0.3278564
50
181.8183354
51
229.6455015
0
ARC
8
DEFAULT_255_1_388
10
18.3977951
20
-1.4841175
40
0.4453611
50
179.9760419
51
183.2330638
0
ARC
8
DEFAULT_255_1_388
10
18.3784503
20
-1.4864219
40
0.2579652
50
179.4467996
51
196.2871626
0
ARC
8
DEFAULT_255_1_388
10
18.3235957
20
-1.5014291
40
0.2011057
50
196.5661293
51
227.7059371
0
ARC
8
DEFAULT_255_1_388
10
18.3420564
20
-1.4807845
40
0.2287994
50
227.7653015
51
257.8763321
0
ARC
8
DEFAULT_255_1_388
10
18.3673647
20
-1.3747039
40
0.3378385
50
257.4583525
51
270.4267406
0
ARC
8
DEFAULT_255_1_388
10
18.3724897
20
-1.342077
40
0.3704652
50
269.5965319
51
280.8788143
0
ARC
8
DEFAULT_255_1_388
10
18.3983125
20
-1.4710471
40
0.2389415
50
280.6347277
51
299.8594068
0
ARC
8
DEFAULT_255_1_388
10
18.4197895
20
-1.5118264
40
0.19289
50
300.3575552
51
314.5515667
0
ARC
8
DEFAULT_255_1_388
10
18.410457
20
-1.5049975
40
0.204312
50
315.0730962
51
345.0429362
0
ARC
8
DEFAULT_255_1_388
10
18.3066078
20
-1.4747461
40
0.31246
50
344.598526
51
357.9270698
0
ARC
8
DEFAULT_255_1_388
10
18.2056383
20
-1.4678295
40
0.4136265
50
357.4755098
51
0.0224936
0
ARC
8
DEFAULT_255_1_388
10
18.320926
20
-1.4650901
40
0.2983498
50
359.5051035
51
13.4236939
0
ARC
8
DEFAULT_255_1_388
10
18.418435
20
-1.4401363
40
0.1977186
50
12.9497905
51
48.7550905
0
ARC
8
DEFAULT_255_1_388
10
18.3979272
20
-1.4681627
40
0.2323321
50
49.509109
51
72.1832965
0
ARC
8
DEFAULT_255_1_388
10
18.357674
20
-1.5876368
40
0.358397
50
71.9008458
51
84.3555134
0
ARC
8
DEFAULT_255_1_388
10
18.3395135
20
-1.7408288
40
0.512641
50
84.019632
51
89.3326067
0
LINE
8
DEFAULT_255_1_388
10
17.7816318
20
13.6021382
11
17.7816318
21
13.4657
0
LINE
8
DEFAULT_255_1_388
10
17.7816318
20
13.4657
11
16.9196313
21
13.4657
0
LINE
8
DEFAULT_255_1_388
10
16.9196313
20
13.4657
11
16.9196313
21
13.5858741
0
LINE
8
DEFAULT_255_1_388
10
16.9196313
20
13.5858741
11
17.3750278
21
14.0918702
0
LINE
8
DEFAULT_255_1_388
10
17.0614909
20
14.3936607
11
16.8943315
21
14.3936607
0
LINE
8
DEFAULT_255_1_388
10
17.4735163
20
13.984346
11
17.1211262
21
13.6021382
0
LINE
8
DEFAULT_255_1_388
10
17.1211262
20
13.6021382
11
17.7816318
21
13.6021382
0
ARC
8
DEFAULT_255_1_388
10
15.8574337
20
15.4338983
40
2.0258655
50
318.5132526
51
320.7829045
0
ARC
8
DEFAULT_255_1_388
10
16.4522294
20
14.9497929
40
1.2589638
50
320.7372878
51
323.9739031
0
ARC
8
DEFAULT_255_1_388
10
16.8931226
20
14.6303554
40
0.7145141
50
323.8962701
51
328.64194
0
ARC
8
DEFAULT_255_1_388
10
17.1233484
20
14.4883545
40
0.4440242
50
328.8294576
51
331.7891185
0
ARC
8
DEFAULT_255_1_388
10
17.2355804
20
14.4304374
40
0.3177517
50
331.4254512
51
352.9365785
0
ARC
8
DEFAULT_255_1_388
10
17.2508804
20
14.427005
40
0.3021496
50
353.2257659
51
0.0166158
0
ARC
8
DEFAULT_255_1_388
10
17.2745564
20
14.4295894
40
0.2784847
50
359.486299
51
15.9343185
0
ARC
8
DEFAULT_255_1_388
10
17.3315831
20
14.4449269
40
0.2194403
50
16.1712913
51
43.5286088
0
ARC
8
DEFAULT_255_1_388
10
17.3402776
20
14.4536191
40
0.2071504
50
43.4417391
51
83.1661095
0
ARC
8
DEFAULT_255_1_388
10
17.3251937
20
14.3707316
40
0.2912888
50
82.160179
51
90.1505708
0
ARC
8
DEFAULT_255_1_388
10
17.3216418
20
14.3103279
40
0.3517025
50
89.5460741
51
102.5418361
0
ARC
8
DEFAULT_255_1_388
10
17.2943138
20
14.4262933
40
0.2325748
50
102.1738499
51
129.206123
0
ARC
8
DEFAULT_255_1_388
10
17.2854592
20
14.4402664
40
0.2161591
50
129.72865
51
135.753947
0
ARC
8
DEFAULT_255_1_388
10
17.2991074
20
14.4293728
40
0.2335433
50
136.1757367
51
166.3673339
0
ARC
8
DEFAULT_255_1_388
10
17.4123762
20
14.3990148
40
0.3507873
50
165.9090694
51
178.8684636
0
ARC
8
DEFAULT_255_1_388
10
17.5099534
20
14.3937263
40
0.4484624
50
178.4391136
51
180.0083808
0
ARC
8
DEFAULT_255_1_388
10
17.3520235
20
14.3981197
40
0.4577138
50
163.2878482
51
180.5581842
0
ARC
8
DEFAULT_255_1_388
10
17.2618276
20
14.4229393
40
0.3641968
50
133.4540601
51
162.947111
0
ARC
8
DEFAULT_255_1_388
10
17.2819158
20
14.4015789
40
0.3935189
50
100.7869829
51
133.4382499
0
ARC
8
DEFAULT_255_1_388
10
17.3210403
20
14.2273399
40
0.5720313
50
89.660664
51
101.3702276
0
ARC
8
DEFAULT_255_1_388
10
17.3285012
20
14.2342263
40
0.5651495
50
78.2172678
51
90.412935
0
ARC
8
DEFAULT_255_1_388
10
17.3684478
20
14.4169511
40
0.378122
50
55.9269121
51
78.4888449
0
ARC
8
DEFAULT_255_1_388
10
17.3905193
20
14.4550187
40
0.3342379
50
47.929771
51
55.4049217
0
ARC
8
DEFAULT_255_1_388
10
17.4019723
20
14.4666618
40
0.3179217
50
4.334829
51
48.0560205
0
ARC
8
DEFAULT_255_1_388
10
17.2787525
20
14.4475487
40
0.442341
50
359.9251713
51
5.5971671
0
ARC
8
DEFAULT_255_1_388
10
17.326968
20
14.4538728
40
0.3941854
50
337.8914027
51
358.9967534
0
ARC
8
DEFAULT_255_1_388
10
17.021725
20
14.5716295
40
0.7213271
50
326.9132501
51
338.3508308
0
ARC
8
DEFAULT_255_1_388
10
16.5733362
20
14.8590105
40
1.2538973
50
319.6471833
51
327.0959558
0
ARC
8
DEFAULT_255_1_388
10
16.142002
20
15.214805
40
1.8129975
50
317.2588228
51
319.9045804
0
LINE
8
DEFAULT_255_1_388
10
5.8279985
20
7.4290148
11
5.8279985
21
6.1071
0
LINE
8
DEFAULT_255_1_388
10
5.8279985
20
6.1071
11
5.6599355
21
6.1071
0
LINE
8
DEFAULT_255_1_388
10
5.6599355
20
6.1071
11
5.6599355
21
7.221195
0
LINE
8
DEFAULT_255_1_388
10
5.6599355
20
7.221195
11
5.322906
21
7.0974066
0
LINE
8
DEFAULT_255_1_388
10
5.322906
20
7.0974066
11
5.322906
21
7.2492055
0
LINE
8
DEFAULT_255_1_388
10
5.322906
20
7.2492055
11
5.8017951
21
7.4290148
0
LINE
8
DEFAULT_255_1_388
10
5.8017951
20
7.4290148
11
5.8279985
21
7.4290148
0
LINE
8
DEFAULT_255_1_388
10
7.1426848
20
6.885069
11
7.1426848
21
6.6682135
0
LINE
8
DEFAULT_255_1_388
10
6.312309
20
6.6456244
11
6.312309
21
6.8688048
0
LINE
8
DEFAULT_255_1_388
10
6.9755253
20
6.6230353
11
6.9755253
21
6.8968153
0
LINE
8
DEFAULT_255_1_388
10
6.4794685
20
6.9094652
11
6.4794685
21
6.6420102
0
ARC
8
DEFAULT_255_1_388
10
5.7649182
20
6.6627118
40
1.3777776
50
353.8440855
51
0.2287917
0
ARC
8
DEFAULT_255_1_388
10
6.2868199
20
6.6044414
40
0.852639
50
344.4934746
51
353.9763743
0
ARC
8
DEFAULT_255_1_388
10
6.6235006
20
6.5087191
40
0.5026273
50
329.2803599
51
344.7473406
0
ARC
8
DEFAULT_255_1_388
10
6.7350502
20
6.4475038
40
0.3754848
50
324.9361395
51
328.6153007
0
ARC
8
DEFAULT_255_1_388
10
6.7776152
20
6.4177586
40
0.3235566
50
280.5801797
51
324.9173226
0
ARC
8
DEFAULT_255_1_388
10
6.732478
20
6.6057236
40
0.5167077
50
269.5979457
51
281.6732777
0
ARC
8
DEFAULT_255_1_388
10
6.7243684
20
6.5922113
40
0.5032026
50
256.6228565
51
270.5105488
0
ARC
8
DEFAULT_255_1_388
10
6.6791427
20
6.4180345
40
0.3233092
50
215.8618351
51
257.2787793
0
ARC
8
DEFAULT_255_1_388
10
6.7940134
20
6.4951106
40
0.4615831
50
197.9695203
51
215.2622745
0
ARC
8
DEFAULT_255_1_388
10
7.0735809
20
6.5894641
40
0.7566307
50
187.8816486
51
198.2346584
0
ARC
8
DEFAULT_255_1_388
10
7.5189048
20
6.6537453
40
1.2065653
50
180.8977266
51
188.0054894
0
ARC
8
DEFAULT_255_1_388
10
7.8239261
20
6.66524
40
1.5117443
50
180.7434591
51
181.152202
0
ARC
8
DEFAULT_255_1_388
10
7.6564257
20
6.8742371
40
1.3441277
50
173.7674302
51
180.2315596
0
ARC
8
DEFAULT_255_1_388
10
7.1482126
20
6.9316779
40
0.8326847
50
164.3058537
51
173.9000553
0
ARC
8
DEFAULT_255_1_388
10
6.8206126
20
7.0260652
40
0.4917711
50
148.7922028
51
164.5682288
0
ARC
8
DEFAULT_255_1_388
10
6.7136864
20
7.0857457
40
0.3694204
50
144.5883979
51
148.1161588
0
ARC
8
DEFAULT_255_1_388
10
6.6749609
20
7.1127667
40
0.322202
50
101.6440149
51
144.5142619
0
ARC
8
DEFAULT_255_1_388
10
6.7227801
20
6.9227337
40
0.5180451
50
89.528284
51
102.5820197
0
ARC
8
DEFAULT_255_1_388
10
6.7316793
20
6.9183376
40
0.5224441
50
77.0437914
51
90.508231
0
ARC
8
DEFAULT_255_1_388
10
6.7769047
20
7.1031272
40
0.3322297
50
48.2777708
51
77.4996087
0
ARC
8
DEFAULT_255_1_388
10
6.7850787
20
7.1176557
40
0.315966
50
36.3141586
51
47.6307332
0
ARC
8
DEFAULT_255_1_388
10
6.6873509
20
7.0518159
40
0.4337313
50
18.2931065
51
35.6770203
0
ARC
8
DEFAULT_255_1_388
10
6.401235
20
6.9536107
40
0.7362203
50
8.0246996
51
18.5605636
0
ARC
8
DEFAULT_255_1_388
10
5.9328705
20
6.8844432
40
1.2096583
50
1.127539
51
8.1718423
0
ARC
8
DEFAULT_255_1_388
10
5.5679839
20
6.8701374
40
1.5747719
50
0.5432713
51
1.38669
0
ARC
8
DEFAULT_255_1_388
10
5.7737217
20
6.9008163
40
1.2018103
50
359.8092569
51
4.9408001
0
ARC
8
DEFAULT_255_1_388
10
6.2473799
20
6.94309
40
0.7262727
50
4.8364937
51
12.2906017
0
ARC
8
DEFAULT_255_1_388
10
6.5573263
20
7.0121485
40
0.4087324
50
12.0806994
51
23.8171225
0
ARC
8
DEFAULT_255_1_388
10
6.6893659
20
7.0680508
40
0.2653719
50
24.2874621
51
31.3934353
0
ARC
8
DEFAULT_255_1_388
10
6.7484095
20
7.1066822
40
0.1948607
50
30.7407708
51
82.4658033
0
ARC
8
DEFAULT_255_1_388
10
6.7281756
20
7.0073017
40
0.2961198
50
81.1057101
51
90.2187368
0
ARC
8
DEFAULT_255_1_388
10
6.7241568
20
7.0363421
40
0.2670929
50
89.380395
51
105.6763916
0
ARC
8
DEFAULT_255_1_388
10
6.703529
20
7.111332
40
0.1893189
50
105.7980655
51
149.7387869
0
ARC
8
DEFAULT_255_1_388
10
6.823243
20
7.0393719
40
0.3289892
50
149.4208441
51
163.628295
0
ARC
8
DEFAULT_255_1_388
10
7.058466
20
6.9676345
40
0.5749004
50
163.3764549
51
172.141138
0
ARC
8
DEFAULT_255_1_388
10
7.4297381
20
6.9144582
40
0.9499585
50
172.0258462
51
178.0705453
0
ARC
8
DEFAULT_255_1_388
10
7.7718934
20
6.8982682
40
1.2924734
50
177.8639301
51
179.5036263
0
ARC
8
DEFAULT_255_1_388
10
7.6499953
20
6.6379151
40
1.170534
50
179.7995545
51
185.246089
0
ARC
8
DEFAULT_255_1_388
10
7.1951546
20
6.5948404
40
0.7136613
50
185.1411911
51
193.0082205
0
ARC
8
DEFAULT_255_1_388
10
6.8977806
20
6.5245441
40
0.4080987
50
192.7897338
51
205.2507384
0
ARC
8
DEFAULT_255_1_388
10
6.7800016
20
6.4719538
40
0.2791522
50
205.8001921
51
211.2545876
0
ARC
8
DEFAULT_255_1_388
10
6.7211555
20
6.4325132
40
0.2084074
50
210.3789935
51
238.4007996
0
ARC
8
DEFAULT_255_1_388
10
6.7189641
20
6.4377786
40
0.2117943
50
239.6521916
51
265.9793852
0
ARC
8
DEFAULT_255_1_388
10
6.728549
20
6.5134358
40
0.2879689
50
265.1324455
51
270.0603288
0
ARC
8
DEFAULT_255_1_388
10
6.7317867
20
6.4769418
40
0.2514919
50
269.3314378
51
287.2180039
0
ARC
8
DEFAULT_255_1_388
10
6.747295
20
6.4203291
40
0.1928357
50
287.7957942
51
329.0808983
0
ARC
8
DEFAULT_255_1_388
10
6.6395707
20
6.4875651
40
0.319808
50
328.6635261
51
343.3325043
0
ARC
8
DEFAULT_255_1_388
10
6.3951165
20
6.5637195
40
0.5758408
50
343.0498092
51
351.9392499
0
ARC
8
DEFAULT_255_1_388
10
6.0050487
20
6.6212205
40
0.9701202
50
351.8071632
51
357.7957897
0
ARC
8
DEFAULT_255_1_388
10
5.6415964
20
6.6400724
40
1.3340376
50
357.5870923
51
359.2682493
0
ENDSEC
0
EOF