0
SECTION
2
HEADER
9
$MEASUREMENT
70
1
0
ENDSEC
0
SECTION
2
TABLES
0
TABLE
2
LTYPE
0
LTYPE
72
65
70
64
2
CONTINUOUS
3
______
73
0
40
0
0
ENDTAB
0
TABLE
2
LAYER
0
LAYER
2
DEFAULT_255_2_778
70
0
62
255
6
CONTINUOUS
0
LAYER
2
DEFAULT_255_1_234
70
0
62
255
6
CONTINUOUS
0
ENDTAB
0
ENDSEC
0
SECTION
2
ENTITIES
0
ARC
8
DEFAULT_255_2_778
10
7.4579151
20
3.3098608
40
1.2404357
50
179.9956538
51
180.117393
0
ARC
8
DEFAULT_255_2_778
10
7.5377975
20
3.309923
40
1.3203182
50
135.0005908
51
179.9986157
0
ARC
8
DEFAULT_255_2_778
10
7.5377783
20
3.3099037
40
1.3203181
50
90.0013843
51
134.9994092
0
ARC
8
DEFAULT_255_2_778
10
7.5378405
20
3.3897862
40
1.2404357
50
89.882607
51
90.0043462
0
ARC
8
DEFAULT_255_2_778
10
7.5424879
20
3.3135369
40
1.316684
50
57.3211861
51
90.0916398
0
ARC
8
DEFAULT_255_2_778
10
7.5405762
20
3.3074869
40
1.3228095
50
6.5640329
51
57.3929792
0
ARC
8
DEFAULT_255_2_778
10
7.5262959
20
3.3075855
40
1.336986
50
359.9885895
51
6.4898767
0
ARC
8
DEFAULT_255_2_778
10
7.5465448
20
3.3051853
40
1.3167389
50
327.3218826
51
0.0928583
0
ARC
8
DEFAULT_255_2_778
10
7.5406158
20
3.3070688
40
1.3227474
50
276.5614586
51
327.3918718
0
ARC
8
DEFAULT_255_2_778
10
7.54065
20
3.3215924
40
1.3371731
50
269.9885182
51
276.4888916
0
ARC
8
DEFAULT_255_2_778
10
7.5378385
20
3.2267672
40
1.2423506
50
269.995663
51
270.117302
0
ARC
8
DEFAULT_255_2_778
10
7.5376039
20
3.3043139
40
1.3198973
50
224.9930252
51
270.0061026
0
ARC
8
DEFAULT_255_2_778
10
7.5377975
20
3.3047156
40
1.3203181
50
180.0013843
51
224.9994092
0
ARC
8
DEFAULT_255_2_778
10
7.4579151
20
3.3047777
40
1.2404357
50
179.882607
51
180.0043462
0
ARC
8
DEFAULT_255_2_778
10
7.5389532
20
3.3087481
40
0.6599728
50
89.8759594
51
180.1240406
0
ARC
8
DEFAULT_255_2_778
10
7.5418893
20
3.3087268
40
0.6599942
50
359.8778051
51
90.1308527
0
ARC
8
DEFAULT_255_2_778
10
7.5418681
20
3.3058332
40
0.6600156
50
269.8709926
51
0.1290074
0
ARC
8
DEFAULT_255_2_778
10
7.5389745
20
3.305812
40
0.6599942
50
179.8691503
51
270.1221875
0
LINE
8
DEFAULT_255_2_778
10
6.217482
20
3.3073193
11
6.217482
21
3.3073193
0
LINE
8
DEFAULT_255_2_778
10
6.878982
20
3.3073193
11
6.878982
21
3.3073193
0
LINE
8
DEFAULT_255_2_778
10
10.1862002
20
10.4510499
11
26.0612002
21
10.4510499
0
LINE
8
DEFAULT_255_2_778
10
26.0612002
20
10.4510499
11
26.0612002
21
2.5135499
0
LINE
8
DEFAULT_255_2_778
10
26.0612002
20
2.5135499
11
10.1862002
21
2.5135499
0
LINE
8
DEFAULT_255_2_778
10
10.1862002
20
2.5135499
11
10.1862002
21
10.4510499
0
LINE
8
DEFAULT_255_2_778
10
18.1237
20
2.5135499
11
18.1237
21
10.4510499
0
LINE
8
DEFAULT_255_2_778
10
20.7695
20
-2.7781501
11
20.7695
21
5.1593499
0
LINE
8
DEFAULT_255_2_778
10
20.1080417
20
5.1593
11
21.4309417
21
5.1593
0
LINE
8
DEFAULT_255_2_778
10
15.4779
20
2.5135166
11
15.4779
21
5.1593166
0
LINE
8
DEFAULT_255_2_778
10
14.8164417
20
5.1593
11
16.1393417
21
5.1593
0
LINE
8
DEFAULT_255_2_778
10
20.7695
20
15.7426333
11
20.7695
21
10.4509333
0
LINE
8
DEFAULT_255_2_778
10
23.4154
20
1.1905749
11
23.4154
21
-2.7781251
0
LINE
8
DEFAULT_255_2_778
10
20.7694834
20
10.4510499
11
23.4152834
21
2.5135499
0
LINE
8
DEFAULT_255_2_778
10
23.4152834
20
2.5135499
11
23.4152834
21
4.6302499
0
LINE
8
DEFAULT_255_2_778
10
23.4152834
20
4.6302499
11
22.0923834
21
4.1010499
0
LINE
8
DEFAULT_255_2_778
10
22.0923834
20
4.1010499
11
23.4152834
21
2.5135499
0
LINE
8
DEFAULT_255_2_778
10
22.0924834
20
2.5135583
11
23.4153834
21
1.1906583
0
LINE
8
DEFAULT_255_2_778
10
23.4153834
20
1.1906583
11
24.7382834
21
2.5135583
0
LINE
8
DEFAULT_255_2_778
10
24.7382834
20
2.5135583
11
22.0924834
21
2.5135583
0
LINE
8
DEFAULT_255_2_778
10
12.8320417
20
2.5135499
11
12.8320417
21
10.4510499
0
LINE
8
DEFAULT_255_2_778
10
12.8320417
20
10.4510499
11
12.1705417
21
8.4666499
0
LINE
8
DEFAULT_255_2_778
10
12.1705417
20
8.4666499
11
13.4934417
21
8.4666499
0
LINE
8
DEFAULT_255_2_778
10
13.4934417
20
8.4666499
11
12.8320417
21
10.4510499
0
ARC
8
DEFAULT_255_2_778
10
4.5474151
20
6.2202608
40
1.2404357
50
179.9956538
51
180.117393
0
ARC
8
DEFAULT_255_2_778
10
4.6272975
20
6.220323
40
1.3203182
50
135.0005908
51
179.9986157
0
ARC
8
DEFAULT_255_2_778
10
4.6272783
20
6.2203037
40
1.3203181
50
90.0013843
51
134.9994092
0
ARC
8
DEFAULT_255_2_778
10
4.6273405
20
6.3001862
40
1.2404357
50
89.882607
51
90.0043462
0
ARC
8
DEFAULT_255_2_778
10
4.6319879
20
6.2239369
40
1.316684
50
57.3211861
51
90.0916398
0
ARC
8
DEFAULT_255_2_778
10
4.6300762
20
6.2178869
40
1.3228095
50
6.5640329
51
57.3929792
0
ARC
8
DEFAULT_255_2_778
10
4.6157959
20
6.2179855
40
1.336986
50
359.9885895
51
6.4898767
0
ARC
8
DEFAULT_255_2_778
10
4.6360448
20
6.2155853
40
1.3167389
50
327.3218826
51
0.0928583
0
ARC
8
DEFAULT_255_2_778
10
4.6301158
20
6.2174688
40
1.3227474
50
276.5614586
51
327.3918718
0
ARC
8
DEFAULT_255_2_778
10
4.63015
20
6.2319924
40
1.3371731
50
269.9885182
51
276.4888916
0
ARC
8
DEFAULT_255_2_778
10
4.6273385
20
6.1371672
40
1.2423506
50
269.995663
51
270.117302
0
ARC
8
DEFAULT_255_2_778
10
4.6271039
20
6.2147139
40
1.3198973
50
224.9930252
51
270.0061026
0
ARC
8
DEFAULT_255_2_778
10
4.6272975
20
6.2151156
40
1.3203181
50
180.0013843
51
224.9994092
0
ARC
8
DEFAULT_255_2_778
10
4.5474151
20
6.2151777
40
1.2404357
50
179.882607
51
180.0043462
0
ARC
8
DEFAULT_255_2_778
10
4.6284532
20
6.2191481
40
0.6599728
50
89.8759594
51
180.1240406
0
ARC
8
DEFAULT_255_2_778
10
4.6313893
20
6.2191268
40
0.6599942
50
359.8778051
51
90.1308527
0
ARC
8
DEFAULT_255_2_778
10
4.6313681
20
6.2162332
40
0.6600156
50
269.8709926
51
0.1290074
0
ARC
8
DEFAULT_255_2_778
10
4.6284745
20
6.216212
40
0.6599942
50
179.8691503
51
270.1221875
0
LINE
8
DEFAULT_255_2_778
10
3.306982
20
6.2177193
11
3.306982
21
6.2177193
0
LINE
8
DEFAULT_255_2_778
10
3.968482
20
6.2177193
11
3.968482
21
6.2177193
0
LINE
8
DEFAULT_255_2_778
10
5.6778137
20
5.9530863
11
7.2427137
21
4.3882863
0
LINE
8
DEFAULT_255_2_778
10
7.2427137
20
4.3882863
11
6.4943137
21
3.6398863
0
LINE
8
DEFAULT_255_2_778
10
6.4943137
20
3.6398863
11
4.9295137
21
5.2047863
0
LINE
8
DEFAULT_255_2_778
10
4.9295137
20
5.2047863
11
5.6778137
21
5.9530863
0
LINE
8
DEFAULT_255_2_778
10
26.0612188
20
3.7835
11
26.3552188
21
5.6885
0
LINE
8
DEFAULT_255_2_778
10
26.3552188
20
5.6885
11
26.7962188
21
2.5135
0
LINE
8
DEFAULT_255_2_778
10
26.7962188
20
2.5135
11
27.2373188
21
5.6885
0
LINE
8
DEFAULT_255_2_778
10
27.2373188
20
5.6885
11
27.6783188
21
2.5135
0
LINE
8
DEFAULT_255_2_778
10
27.6783188
20
2.5135
11
28.1194188
21
5.6885
0
LINE
8
DEFAULT_255_2_778
10
28.1194188
20
5.6885
11
28.5605188
21
2.5135
0
LINE
8
DEFAULT_255_2_778
10
28.5605188
20
2.5135
11
28.7076188
21
3.7835
0
LINE
8
DEFAULT_255_2_778
10
10.1862688
20
3.8364
11
8.7971688
21
3.8364
0
LINE
8
DEFAULT_255_2_778
10
10.1862688
20
2.7781
11
8.7971688
21
2.7781
0
LINE
8
DEFAULT_255_1_234
10
18.3231137
20
-0.6674567
11
18.3231137
21
-1.8425
0
LINE
8
DEFAULT_255_1_234
10
18.3231137
20
-1.8425
11
18.1737234
21
-1.8425
0
LINE
8
DEFAULT_255_1_234
10
18.1737234
20
-1.8425
11
18.1737234
21
-0.8521867
0
LINE
8
DEFAULT_255_1_234
10
18.1737234
20
-0.8521867
11
17.8741396
21
-0.9622215
0
LINE
8
DEFAULT_255_1_234
10
17.8741396
20
-0.9622215
11
17.8741396
21
-0.8272883
0
LINE
8
DEFAULT_255_1_234
10
17.8741396
20
-0.8272883
11
18.2998217
21
-0.6674567
0
LINE
8
DEFAULT_255_1_234
10
18.2998217
20
-0.6674567
11
18.3231137
21
-0.6674567
0
LINE
8
DEFAULT_255_1_234
10
18.9744877
20
-1.3067831
11
18.9744877
21
-1.1855038
0
LINE
8
DEFAULT_255_1_234
10
18.9744877
20
-1.1855038
11
19.0861289
21
-1.1855038
0
LINE
8
DEFAULT_255_1_234
10
18.8957767
20
-0.9798913
11
18.7471895
21
-0.9798913
0
LINE
8
DEFAULT_255_1_234
10
18.7367482
20
-1.5340812
11
18.8861386
21
-1.5340812
0
LINE
8
DEFAULT_255_1_234
10
19.0861289
20
-1.3067831
11
18.9744877
21
-1.3067831
0
ARC
8
DEFAULT_255_1_234
10
19.0832155
20
-0.8462287
40
0.3392876
50
270.4919872
51
281.8951556
0
ARC
8
DEFAULT_255_1_234
10
19.1073417
20
-0.9564298
40
0.2264817
50
281.6691735
51
301.2943132
0
ARC
8
DEFAULT_255_1_234
10
19.1243627
20
-0.9875696
40
0.1910381
50
301.7833094
51
311.7545298
0
ARC
8
DEFAULT_255_1_234
10
19.1335203
20
-0.9977252
40
0.1773635
50
311.7323931
51
354.2802411
0
ARC
8
DEFAULT_255_1_234
10
19.0608828
20
-0.9852278
40
0.2509385
50
353.0937916
51
0.1181479
0
ARC
8
DEFAULT_255_1_234
10
19.0147613
20
-0.9804614
40
0.2970898
50
359.1805295
51
15.0453146
0
ARC
8
DEFAULT_255_1_234
10
19.149345
20
-0.9412008
40
0.1569564
50
13.9577229
51
77.6713066
0
ARC
8
DEFAULT_255_1_234
10
19.1106979
20
-1.0797051
40
0.3006298
50
76.1116566
51
90.7026153
0
ARC
8
DEFAULT_255_1_234
10
19.1047817
20
-1.0523455
40
0.2732568
50
89.5324876
51
103.531937
0
ARC
8
DEFAULT_255_1_234
10
19.0847261
20
-0.9724116
40
0.1908508
50
103.2931773
51
133.5619022
0
ARC
8
DEFAULT_255_1_234
10
19.080275
20
-0.9664625
40
0.1834746
50
133.8349307
51
173.5344437
0
ARC
8
DEFAULT_255_1_234
10
19.1525793
20
-0.9792787
40
0.2568033
50
172.5096846
51
180.1366907
0
ARC
8
DEFAULT_255_1_234
10
19.0574687
20
-0.9758378
40
0.3103056
50
155.3484492
51
180.7484736
0
ARC
8
DEFAULT_255_1_234
10
19.0525776
20
-0.9787154
40
0.3070957
50
131.5744599
51
154.4798489
0
ARC
8
DEFAULT_255_1_234
10
19.0838923
20
-1.010369
40
0.3515643
50
96.9875458
51
131.9690667
0
ARC
8
DEFAULT_255_1_234
10
19.1058403
20
-1.1349364
40
0.4779224
50
89.8596053
51
97.7825159
0
ARC
8
DEFAULT_255_1_234
10
19.1106466
20
-1.1611384
40
0.5041361
50
78.3655447
51
90.4131539
0
ARC
8
DEFAULT_255_1_234
10
19.1464384
20
-0.9952113
40
0.3344039
50
56.6229102
51
78.638727
0
ARC
8
DEFAULT_255_1_234
10
19.1679328
20
-0.9576195
40
0.2912001
50
47.0253525
51
56.0854072
0
ARC
8
DEFAULT_255_1_234
10
19.1699108
20
-0.9536777
40
0.2869704
50
10.9208013
51
46.7778124
0
ARC
8
DEFAULT_255_1_234
10
19.0335174
20
-0.9852143
40
0.426899
50
359.6364486
51
11.6087304
0
ARC
8
DEFAULT_255_1_234
10
19.2170018
20
-0.9867248
40
0.243409
50
332.3549906
51
359.7179418
0
ARC
8
DEFAULT_255_1_234
10
19.151962
20
-0.9558858
40
0.3153459
50
325.2333722
51
332.8745602
0
ARC
8
DEFAULT_255_1_234
10
19.1672244
20
-0.9665172
40
0.2967456
50
292.9802137
51
325.2392345
0
ARC
8
DEFAULT_255_1_234
10
19.1397617
20
-0.9131137
40
0.3566604
50
292.5402179
51
293.6924929
0
ARC
8
DEFAULT_255_1_234
10
19.1790213
20
-1.5585909
40
0.3307468
50
57.6435486
51
72.8625112
0
ARC
8
DEFAULT_255_1_234
10
19.2144713
20
-1.5011451
40
0.2632492
50
36.7248896
51
57.4697979
0
ARC
8
DEFAULT_255_1_234
10
19.2133346
20
-1.499878
40
0.2634081
50
8.0545065
51
36.356114
0
ARC
8
DEFAULT_255_1_234
10
19.1270531
20
-1.5153826
40
0.3510261
50
359.8320645
51
8.5869982
0
ARC
8
DEFAULT_255_1_234
10
19.0895307
20
-1.5201899
40
0.3885653
50
343.9829931
51
0.5571613
0
ARC
8
DEFAULT_255_1_234
10
19.1781504
20
-1.5444562
40
0.2966924
50
311.6359546
51
343.7651759
0
ARC
8
DEFAULT_255_1_234
10
19.1403074
20
-1.5017898
40
0.3537231
50
279.7829875
51
311.6255694
0
ARC
8
DEFAULT_255_1_234
10
19.110185
20
-1.358072
40
0.5004971
50
269.7286406
51
280.3856417
0
ARC
8
DEFAULT_255_1_234
10
19.1039922
20
-1.3622004
40
0.4963778
50
256.6828919
51
270.4412052
0
ARC
8
DEFAULT_255_1_234
10
19.0701218
20
-1.5006606
40
0.3538406
50
229.4223008
51
256.8556159
0
ARC
8
DEFAULT_255_1_234
10
19.0286611
20
-1.5473264
40
0.2914296
50
181.818294
51
229.6455059
0
ARC
8
DEFAULT_255_1_234
10
19.1326567
20
-1.5342504
40
0.3959084
50
179.9755256
51
183.2323064
0
ARC
8
DEFAULT_255_1_234
10
19.1154313
20
-1.5362963
40
0.2293034
50
179.4465117
51
196.2869258
0
ARC
8
DEFAULT_255_1_234
10
19.0666721
20
-1.5496349
40
0.1787621
50
196.5661473
51
227.705904
0
ARC
8
DEFAULT_255_1_234
10
19.0830816
20
-1.5312845
40
0.2033784
50
227.7652068
51
257.8762805
0
ARC
8
DEFAULT_255_1_234
10
19.1055786
20
-1.4369844
40
0.3003081
50
257.4584385
51
270.426602
0
ARC
8
DEFAULT_255_1_234
10
19.1101352
20
-1.4080004
40
0.329292
50
269.5962073
51
280.8789248
0
ARC
8
DEFAULT_255_1_234
10
19.1330881
20
-1.5226315
40
0.2123908
50
280.6346389
51
299.8595945
0
ARC
8
DEFAULT_255_1_234
10
19.1521788
20
-1.5588788
40
0.171457
50
300.3576302
51
314.5517981
0
ARC
8
DEFAULT_255_1_234
10
19.1438848
20
-1.5528081
40
0.1816095
50
315.0728369
51
345.0431014
0
ARC
8
DEFAULT_255_1_234
10
19.0515662
20
-1.5259159
40
0.2777492
50
344.5986631
51
357.9269593
0
ARC
8
DEFAULT_255_1_234
10
18.9619989
20
-1.5197724
40
0.3674917
50
357.4748886
51
0.0231117
0
ARC
8
DEFAULT_255_1_234
10
19.0643098
20
-1.5173321
40
0.2651907
50
359.5047933
51
13.4239635
0
ARC
8
DEFAULT_255_1_234
10
19.1509741
20
-1.4951522
40
0.1757509
50
12.9498199
51
48.7551375
0
ARC
8
DEFAULT_255_1_234
10
19.1327475
20
-1.52006
40
0.2065134
50
49.5088623
51
72.1836453
0
ARC
8
DEFAULT_255_1_234
10
19.0969628
20
-1.6262709
40
0.3185836
50
71.9010081
51
84.3554254
0
ARC
8
DEFAULT_255_1_234
10
19.080826
20
-1.7623674
40
0.4556151
50
84.0193428
51
89.333121
0
LINE
8
DEFAULT_255_1_234
10
18.5253119
20
13.5753792
11
18.5253119
21
13.4541
0
LINE
8
DEFAULT_255_1_234
10
18.5253119
20
13.4541
11
17.759084
21
13.4541
0
LINE
8
DEFAULT_255_1_234
10
17.759084
20
13.4541
11
17.759084
21
13.5609221
0
LINE
8
DEFAULT_255_1_234
10
17.759084
20
13.5609221
11
18.1638836
21
14.0106995
0
LINE
8
DEFAULT_255_1_234
10
17.8851823
20
14.2789595
11
17.7365952
21
14.2789595
0
LINE
8
DEFAULT_255_1_234
10
18.2514296
20
13.9151218
11
17.9381918
21
13.5753792
0
LINE
8
DEFAULT_255_1_234
10
17.9381918
20
13.5753792
11
18.5253119
21
13.5753792
0
ARC
8
DEFAULT_255_1_234
10
16.814867
20
15.2036527
40
1.8008286
50
318.5132453
51
320.7828378
0
ARC
8
DEFAULT_255_1_234
10
17.3435644
20
14.7733426
40
1.1191493
50
320.7372736
51
323.9737074
0
ARC
8
DEFAULT_255_1_234
10
17.7355501
20
14.4893361
40
0.6350923
50
323.8961724
51
328.6421089
0
ARC
8
DEFAULT_255_1_234
10
17.9402096
20
14.3631031
40
0.3946393
50
328.8299013
51
331.789948
0
ARC
8
DEFAULT_255_1_234
10
18.0399274
20
14.3116509
40
0.2824501
50
331.4255242
51
352.9364833
0
ARC
8
DEFAULT_255_1_234
10
18.0535775
20
14.3085976
40
0.2685315
50
353.2248685
51
0.0169286
0
ARC
8
DEFAULT_255_1_234
10
18.0745652
20
14.310895
40
0.2475536
50
359.4866256
51
15.9339782
0
ARC
8
DEFAULT_255_1_234
10
18.1252637
20
14.3245286
40
0.1950618
50
16.1714718
51
43.5284424
0
ARC
8
DEFAULT_255_1_234
10
18.1329946
20
14.3322573
40
0.184134
50
43.4415429
51
83.1661404
0
ARC
8
DEFAULT_255_1_234
10
18.1195864
20
14.2585771
40
0.258926
50
82.160215
51
90.1505798
0
ARC
8
DEFAULT_255_1_234
10
18.1164291
20
14.2048865
40
0.3126255
50
89.5460705
51
102.5418777
0
ARC
8
DEFAULT_255_1_234
10
18.0921377
20
14.3079665
40
0.2067346
50
102.1739365
51
129.2061916
0
ARC
8
DEFAULT_255_1_234
10
18.0842449
20
14.3204094
40
0.1921118
50
129.7279328
51
135.7542026
0
ARC
8
DEFAULT_255_1_234
10
18.0963977
20
14.3107045
40
0.2075944
50
136.175737
51
166.3674722
0
ARC
8
DEFAULT_255_1_234
10
18.1970896
20
14.2837182
40
0.3118201
50
165.9092917
51
178.8683903
0
ARC
8
DEFAULT_255_1_234
10
18.2835757
20
14.2790179
40
0.3983935
50
178.438168
51
180.0083905
0
ARC
8
DEFAULT_255_1_234
10
18.1434359
20
14.2829231
40
0.4068601
50
163.2878735
51
180.5581814
0
ARC
8
DEFAULT_255_1_234
10
18.0632621
20
14.304984
40
0.3237344
50
133.454115
51
162.9470031
0
ARC
8
DEFAULT_255_1_234
10
18.0811162
20
14.286
40
0.349795
50
100.7869394
51
133.4384016
0
ARC
8
DEFAULT_255_1_234
10
18.1158934
20
14.1311319
40
0.5084616
50
89.6605301
51
101.3704185
0
ARC
8
DEFAULT_255_1_234
10
18.1225273
20
14.1372496
40
0.502348
50
78.2171172
51
90.4130393
0
ARC
8
DEFAULT_255_1_234
10
18.1580351
20
14.2996637
40
0.3361092
50
55.9268222
51
78.4888551
0
ARC
8
DEFAULT_255_1_234
10
18.1776791
20
14.3335324
40
0.2970617
50
47.9292255
51
55.4054003
0
ARC
8
DEFAULT_255_1_234
10
18.1878352
20
14.3438502
40
0.2825983
50
4.3347696
51
48.0560701
0
ARC
8
DEFAULT_255_1_234
10
18.0782745
20
14.3268601
40
0.393225
50
359.925209
51
5.5967654
0
ARC
8
DEFAULT_255_1_234
10
18.1211637
20
14.3324816
40
0.3503892
50
337.8914096
51
358.9967724
0
ARC
8
DEFAULT_255_1_234
10
17.8498049
20
14.4371706
40
0.6412172
50
326.9135351
51
338.3505194
0
ARC
8
DEFAULT_255_1_234
10
17.4512353
20
14.6926284
40
1.1146189
50
319.6472867
51
327.095818
0
ARC
8
DEFAULT_255_1_234
10
17.0679356
20
15.0088
40
1.6114559
50
317.2586784
51
319.9046139
0
ENDSEC
0
EOF