0
SECTION
2
HEADER
9
$MEASUREMENT
70
1
0
ENDSEC
0
SECTION
2
TABLES
0
TABLE
2
LTYPE
0
LTYPE
72
65
70
64
2
CONTINUOUS
3
______
73
0
40
0
0
ENDTAB
0
TABLE
2
LAYER
0
LAYER
2
DEFAULT_255_2_778
70
0
62
255
6
CONTINUOUS
0
LAYER
2
DEFAULT_255_1_388
70
0
62
255
6
CONTINUOUS
0
ENDTAB
0
ENDSEC
0
SECTION
2
ENTITIES
0
LINE
8
DEFAULT_255_2_778
10
19.9760335
20
2.5135499
11
9.3927335
21
2.5135499
0
LINE
8
DEFAULT_255_2_778
10
9.3927335
20
2.5135499
11
9.3927335
21
10.4510499
0
LINE
8
DEFAULT_255_2_778
10
9.3927335
20
10.4510499
11
19.9760335
21
10.4510499
0
LINE
8
DEFAULT_255_2_778
10
19.9760335
20
10.4510499
11
19.9760335
21
2.5135499
0
LINE
8
DEFAULT_255_2_778
10
6.7468834
20
2.5135
11
4.1010834
21
2.5135
0
LINE
8
DEFAULT_255_2_778
10
4.1010834
20
2.5135
11
4.1010834
21
5.6885
0
LINE
8
DEFAULT_255_2_778
10
4.1010834
20
5.6885
11
6.7468834
21
5.6885
0
LINE
8
DEFAULT_255_2_778
10
6.7468834
20
5.6885
11
6.7468834
21
2.5135
0
LINE
8
DEFAULT_255_2_778
10
12.0385
20
2.5135499
11
12.0385
21
10.4510499
0
LINE
8
DEFAULT_255_2_778
10
14.6844
20
2.5135499
11
14.6844
21
10.4510499
0
LINE
8
DEFAULT_255_2_778
10
17.3302
20
5.1593499
11
17.3302
21
-2.7781501
0
LINE
8
DEFAULT_255_2_778
10
17.3302
20
7.8051499
11
17.3302
21
15.7426499
0
LINE
8
DEFAULT_255_2_778
10
19.9760834
20
4.101
11
20.1964834
21
5.6885
0
LINE
8
DEFAULT_255_2_778
10
20.1964834
20
5.6885
11
20.6375834
21
2.5135
0
LINE
8
DEFAULT_255_2_778
10
20.6375834
20
2.5135
11
21.0785834
21
5.6885
0
LINE
8
DEFAULT_255_2_778
10
21.0785834
20
5.6885
11
21.5193834
21
2.5135
0
LINE
8
DEFAULT_255_2_778
10
21.5193834
20
2.5135
11
21.9604834
21
5.6885
0
LINE
8
DEFAULT_255_2_778
10
21.9604834
20
5.6885
11
22.4014834
21
2.5135
0
LINE
8
DEFAULT_255_2_778
10
22.4014834
20
2.5135
11
22.6218834
21
4.101
0
LINE
8
DEFAULT_255_2_778
10
16.53645
20
5.1593
11
18.12395
21
5.1593
0
LINE
8
DEFAULT_255_2_778
10
16.53645
20
7.8052
11
18.12395
21
7.8052
0
LINE
8
DEFAULT_255_2_778
10
11.5093333
20
8.5989416
11
12.5676333
21
8.5989416
0
LINE
8
DEFAULT_255_2_778
10
12.5676333
20
8.5989416
11
12.0385333
21
10.4510416
0
LINE
8
DEFAULT_255_2_778
10
12.0385333
20
10.4510416
11
11.5093333
21
8.5989416
0
LINE
8
DEFAULT_255_2_778
10
4.63025
20
2.5135
11
6.21775
21
5.6885
0
LINE
8
DEFAULT_255_2_778
10
6.7468834
20
7.276
11
4.1010834
21
7.276
0
LINE
8
DEFAULT_255_2_778
10
6.7468834
20
8.8635
11
4.1010834
21
8.8635
0
LINE
8
DEFAULT_255_2_778
10
4.101
20
6.4823
11
4.101
21
9.6573
0
LINE
8
DEFAULT_255_2_778
10
9.3926834
20
2.5134999
11
6.7468834
21
2.5134999
0
LINE
8
DEFAULT_255_2_778
10
6.7468834
20
2.5134999
11
6.7468834
21
8.8634999
0
LINE
8
DEFAULT_255_2_778
10
6.7468834
20
8.8634999
11
9.3926834
21
8.8634999
0
LINE
8
DEFAULT_255_2_778
10
9.3926834
20
8.8634999
11
9.3926834
21
2.5134999
0
LINE
8
DEFAULT_255_2_778
10
6.90555
20
2.5134999
11
8.33435
21
5.6884999
0
LINE
8
DEFAULT_255_2_778
10
8.33435
20
5.6884999
11
6.74685
21
8.8634999
0
LINE
8
DEFAULT_255_1_388
10
14.8324985
20
-0.5089852
11
14.8324985
21
-1.8309
0
LINE
8
DEFAULT_255_1_388
10
14.8324985
20
-1.8309
11
14.6644355
21
-1.8309
0
LINE
8
DEFAULT_255_1_388
10
14.6644355
20
-1.8309
11
14.6644355
21
-0.716805
0
LINE
8
DEFAULT_255_1_388
10
14.6644355
20
-0.716805
11
14.327406
21
-0.8405934
0
LINE
8
DEFAULT_255_1_388
10
14.327406
20
-0.8405934
11
14.327406
21
-0.6887945
0
LINE
8
DEFAULT_255_1_388
10
14.327406
20
-0.6887945
11
14.8062951
21
-0.5089852
0
LINE
8
DEFAULT_255_1_388
10
14.8062951
20
-0.5089852
11
14.8324985
21
-0.5089852
0
LINE
8
DEFAULT_255_1_388
10
15.1369318
20
14.1815382
11
15.1369318
21
14.0451
0
LINE
8
DEFAULT_255_1_388
10
15.1369318
20
14.0451
11
14.2749313
21
14.0451
0
LINE
8
DEFAULT_255_1_388
10
14.2749313
20
14.0451
11
14.2749313
21
14.1652741
0
LINE
8
DEFAULT_255_1_388
10
14.2749313
20
14.1652741
11
14.7303278
21
14.6712702
0
LINE
8
DEFAULT_255_1_388
10
14.4167909
20
14.9730607
11
14.2496315
21
14.9730607
0
LINE
8
DEFAULT_255_1_388
10
14.8288163
20
14.563746
11
14.4764262
21
14.1815382
0
LINE
8
DEFAULT_255_1_388
10
14.4764262
20
14.1815382
11
15.1369318
21
14.1815382
0
ARC
8
DEFAULT_255_1_388
10
13.2127337
20
16.0132983
40
2.0258655
50
318.5132526
51
320.7829045
0
ARC
8
DEFAULT_255_1_388
10
13.8075294
20
15.5291929
40
1.2589638
50
320.7372878
51
323.9739031
0
ARC
8
DEFAULT_255_1_388
10
14.2484226
20
15.2097554
40
0.7145141
50
323.8962701
51
328.64194
0
ARC
8
DEFAULT_255_1_388
10
14.4786484
20
15.0677545
40
0.4440242
50
328.8294576
51
331.7891185
0
ARC
8
DEFAULT_255_1_388
10
14.5908804
20
15.0098374
40
0.3177517
50
331.4254512
51
352.9365785
0
ARC
8
DEFAULT_255_1_388
10
14.6061804
20
15.006405
40
0.3021496
50
353.2257659
51
0.0166158
0
ARC
8
DEFAULT_255_1_388
10
14.6298564
20
15.0089894
40
0.2784847
50
359.486299
51
15.9343185
0
ARC
8
DEFAULT_255_1_388
10
14.6868831
20
15.0243269
40
0.2194403
50
16.1712913
51
43.5286088
0
ARC
8
DEFAULT_255_1_388
10
14.6955776
20
15.0330191
40
0.2071504
50
43.4417391
51
83.1661095
0
ARC
8
DEFAULT_255_1_388
10
14.6804937
20
14.9501316
40
0.2912888
50
82.160179
51
90.1505708
0
ARC
8
DEFAULT_255_1_388
10
14.6769418
20
14.8897279
40
0.3517025
50
89.5460741
51
102.5418361
0
ARC
8
DEFAULT_255_1_388
10
14.6496138
20
15.0056933
40
0.2325748
50
102.1738499
51
129.206123
0
ARC
8
DEFAULT_255_1_388
10
14.6407592
20
15.0196664
40
0.2161591
50
129.72865
51
135.753947
0
ARC
8
DEFAULT_255_1_388
10
14.6544074
20
15.0087728
40
0.2335433
50
136.1757367
51
166.3673339
0
ARC
8
DEFAULT_255_1_388
10
14.7676762
20
14.9784148
40
0.3507873
50
165.9090694
51
178.8684636
0
ARC
8
DEFAULT_255_1_388
10
14.8652534
20
14.9731263
40
0.4484624
50
178.4391136
51
180.0083808
0
ARC
8
DEFAULT_255_1_388
10
14.7073235
20
14.9775197
40
0.4577138
50
163.2878482
51
180.5581842
0
ARC
8
DEFAULT_255_1_388
10
14.6171276
20
15.0023393
40
0.3641968
50
133.4540601
51
162.947111
0
ARC
8
DEFAULT_255_1_388
10
14.6372158
20
14.9809789
40
0.3935189
50
100.7869829
51
133.4382499
0
ARC
8
DEFAULT_255_1_388
10
14.6763403
20
14.8067399
40
0.5720313
50
89.660664
51
101.3702276
0
ARC
8
DEFAULT_255_1_388
10
14.6838012
20
14.8136263
40
0.5651495
50
78.2172678
51
90.412935
0
ARC
8
DEFAULT_255_1_388
10
14.7237478
20
14.9963511
40
0.378122
50
55.9269121
51
78.4888449
0
ARC
8
DEFAULT_255_1_388
10
14.7458193
20
15.0344187
40
0.3342379
50
47.929771
51
55.4049217
0
ARC
8
DEFAULT_255_1_388
10
14.7572723
20
15.0460618
40
0.3179217
50
4.334829
51
48.0560205
0
ARC
8
DEFAULT_255_1_388
10
14.6340525
20
15.0269487
40
0.442341
50
359.9251713
51
5.5971671
0
ARC
8
DEFAULT_255_1_388
10
14.682268
20
15.0332728
40
0.3941854
50
337.8914027
51
358.9967534
0
ARC
8
DEFAULT_255_1_388
10
14.377025
20
15.1510295
40
0.7213271
50
326.9132501
51
338.3508308
0
ARC
8
DEFAULT_255_1_388
10
13.9286362
20
15.4384105
40
1.2538973
50
319.6471833
51
327.0959558
0
ARC
8
DEFAULT_255_1_388
10
13.497302
20
15.794205
40
1.8129975
50
317.2588228
51
319.9045804
0
ENDSEC
0
EOF