0
SECTION
2
HEADER
9
$MEASUREMENT
70
1
0
ENDSEC
0
SECTION
2
TABLES
0
TABLE
2
LTYPE
0
LTYPE
72
65
70
64
2
CONTINUOUS
3
______
73
0
40
0
0
ENDTAB
0
TABLE
2
LAYER
0
LAYER
2
DEFAULT_255_2_778
70
0
62
255
6
CONTINUOUS
0
LAYER
2
DEFAULT_255_1_234
70
0
62
255
6
CONTINUOUS
0
ENDTAB
0
ENDSEC
0
SECTION
2
ENTITIES
0
LINE
8
DEFAULT_255_2_778
10
5.4240002
20
10.4510499
11
21.2990002
21
10.4510499
0
LINE
8
DEFAULT_255_2_778
10
21.2990002
20
10.4510499
11
21.2990002
21
2.5135499
0
LINE
8
DEFAULT_255_2_778
10
21.2990002
20
2.5135499
11
5.4240002
21
2.5135499
0
LINE
8
DEFAULT_255_2_778
10
5.4240002
20
2.5135499
11
5.4240002
21
10.4510499
0
LINE
8
DEFAULT_255_2_778
10
13.3615
20
2.5135499
11
13.3615
21
10.4510499
0
LINE
8
DEFAULT_255_2_778
10
16.0073
20
15.7426499
11
16.0073
21
7.8051499
0
LINE
8
DEFAULT_255_2_778
10
18.6531417
20
2.5135499
11
18.6531417
21
10.4510499
0
LINE
8
DEFAULT_255_2_778
10
18.6531417
20
10.4510499
11
17.9916417
21
8.4666499
0
LINE
8
DEFAULT_255_2_778
10
17.9916417
20
8.4666499
11
19.3145417
21
8.4666499
0
LINE
8
DEFAULT_255_2_778
10
19.3145417
20
8.4666499
11
18.6531417
21
10.4510499
0
LINE
8
DEFAULT_255_2_778
10
17.9916417
20
4.4978875
11
19.3145417
21
4.4978875
0
LINE
8
DEFAULT_255_2_778
10
19.3145417
20
4.4978875
11
18.6531417
21
2.5134875
0
LINE
8
DEFAULT_255_2_778
10
18.6531417
20
2.5134875
11
17.9916417
21
4.4978875
0
LINE
8
DEFAULT_255_2_778
10
15.3458417
20
7.8052
11
16.6687417
21
7.8052
0
LINE
8
DEFAULT_255_2_778
10
18.6531
20
10.4509333
11
18.6531
21
15.7426333
0
LINE
8
DEFAULT_255_2_778
10
18.6531
20
2.5135333
11
18.6531
21
-2.7781667
0
LINE
8
DEFAULT_255_2_778
10
10.7156
20
10.4510166
11
10.7156
21
7.8052166
0
LINE
8
DEFAULT_255_2_778
10
10.0541417
20
7.8052
11
11.3770417
21
7.8052
0
LINE
8
DEFAULT_255_2_778
10
8.0697834
20
10.4510499
11
8.0697834
21
8.3343499
0
LINE
8
DEFAULT_255_2_778
10
8.0697834
20
8.3343499
11
9.2603834
21
8.8635499
0
LINE
8
DEFAULT_255_2_778
10
9.2603834
20
8.8635499
11
8.0697834
21
10.4510499
0
LINE
8
DEFAULT_255_2_778
10
8.0697834
20
10.4510499
11
10.7155834
21
2.5135499
0
LINE
8
DEFAULT_255_2_778
10
10.7155834
20
2.5135499
11
10.7155834
21
4.6302499
0
LINE
8
DEFAULT_255_2_778
10
10.7155834
20
4.6302499
11
9.3926834
21
4.1010499
0
LINE
8
DEFAULT_255_2_778
10
9.3926834
20
4.1010499
11
10.7155834
21
2.5135499
0
LINE
8
DEFAULT_255_2_778
10
2.7780834
20
5.6885
11
5.4238834
21
5.6885
0
LINE
8
DEFAULT_255_2_778
10
5.4238834
20
5.6885
11
5.4238834
21
2.5135
0
LINE
8
DEFAULT_255_2_778
10
5.4238834
20
2.5135
11
2.7780834
21
2.5135
0
LINE
8
DEFAULT_255_2_778
10
2.7780834
20
2.5135
11
2.7780834
21
5.6885
0
LINE
8
DEFAULT_255_2_778
10
3.4395417
20
5.6885
11
4.7624417
21
2.5135
0
LINE
8
DEFAULT_255_2_778
10
21.2989834
20
3.7835
11
21.5929834
21
5.6885
0
LINE
8
DEFAULT_255_2_778
10
21.5929834
20
5.6885
11
22.0339834
21
2.5135
0
LINE
8
DEFAULT_255_2_778
10
22.0339834
20
2.5135
11
22.4750834
21
5.6885
0
LINE
8
DEFAULT_255_2_778
10
22.4750834
20
5.6885
11
22.9160834
21
2.5135
0
LINE
8
DEFAULT_255_2_778
10
22.9160834
20
2.5135
11
23.3571834
21
5.6885
0
LINE
8
DEFAULT_255_2_778
10
23.3571834
20
5.6885
11
23.7982834
21
2.5135
0
LINE
8
DEFAULT_255_2_778
10
23.7982834
20
2.5135
11
23.9447834
21
3.7835
0
LINE
8
DEFAULT_255_1_234
10
16.1404137
20
-0.6674567
11
16.1404137
21
-1.8425
0
LINE
8
DEFAULT_255_1_234
10
16.1404137
20
-1.8425
11
15.9910234
21
-1.8425
0
LINE
8
DEFAULT_255_1_234
10
15.9910234
20
-1.8425
11
15.9910234
21
-0.8521867
0
LINE
8
DEFAULT_255_1_234
10
15.9910234
20
-0.8521867
11
15.6914396
21
-0.9622215
0
LINE
8
DEFAULT_255_1_234
10
15.6914396
20
-0.9622215
11
15.6914396
21
-0.8272883
0
LINE
8
DEFAULT_255_1_234
10
15.6914396
20
-0.8272883
11
16.1171217
21
-0.6674567
0
LINE
8
DEFAULT_255_1_234
10
16.1171217
20
-0.6674567
11
16.1404137
21
-0.6674567
0
LINE
8
DEFAULT_255_1_234
10
16.4774119
20
13.5753792
11
16.4774119
21
13.4541
0
LINE
8
DEFAULT_255_1_234
10
16.4774119
20
13.4541
11
15.711184
21
13.4541
0
LINE
8
DEFAULT_255_1_234
10
15.711184
20
13.4541
11
15.711184
21
13.5609221
0
LINE
8
DEFAULT_255_1_234
10
15.711184
20
13.5609221
11
16.1159836
21
14.0106995
0
LINE
8
DEFAULT_255_1_234
10
15.8372823
20
14.2789595
11
15.6886952
21
14.2789595
0
LINE
8
DEFAULT_255_1_234
10
16.2035296
20
13.9151218
11
15.8902918
21
13.5753792
0
LINE
8
DEFAULT_255_1_234
10
15.8902918
20
13.5753792
11
16.4774119
21
13.5753792
0
ARC
8
DEFAULT_255_1_234
10
14.766967
20
15.2036527
40
1.8008286
50
318.5132453
51
320.7828378
0
ARC
8
DEFAULT_255_1_234
10
15.2956644
20
14.7733426
40
1.1191493
50
320.7372736
51
323.9737074
0
ARC
8
DEFAULT_255_1_234
10
15.6876501
20
14.4893361
40
0.6350923
50
323.8961724
51
328.6421089
0
ARC
8
DEFAULT_255_1_234
10
15.8923096
20
14.3631031
40
0.3946393
50
328.8299013
51
331.789948
0
ARC
8
DEFAULT_255_1_234
10
15.9920274
20
14.3116509
40
0.2824501
50
331.4255242
51
352.9364833
0
ARC
8
DEFAULT_255_1_234
10
16.0056775
20
14.3085976
40
0.2685315
50
353.2248685
51
0.0169286
0
ARC
8
DEFAULT_255_1_234
10
16.0266652
20
14.310895
40
0.2475536
50
359.4866256
51
15.9339782
0
ARC
8
DEFAULT_255_1_234
10
16.0773637
20
14.3245286
40
0.1950618
50
16.1714718
51
43.5284424
0
ARC
8
DEFAULT_255_1_234
10
16.0850946
20
14.3322573
40
0.184134
50
43.4415429
51
83.1661404
0
ARC
8
DEFAULT_255_1_234
10
16.0716864
20
14.2585771
40
0.258926
50
82.160215
51
90.1505798
0
ARC
8
DEFAULT_255_1_234
10
16.0685291
20
14.2048865
40
0.3126255
50
89.5460705
51
102.5418777
0
ARC
8
DEFAULT_255_1_234
10
16.0442377
20
14.3079665
40
0.2067346
50
102.1739365
51
129.2061916
0
ARC
8
DEFAULT_255_1_234
10
16.0363449
20
14.3204094
40
0.1921118
50
129.7279328
51
135.7542026
0
ARC
8
DEFAULT_255_1_234
10
16.0484977
20
14.3107045
40
0.2075944
50
136.175737
51
166.3674722
0
ARC
8
DEFAULT_255_1_234
10
16.1491896
20
14.2837182
40
0.3118201
50
165.9092917
51
178.8683903
0
ARC
8
DEFAULT_255_1_234
10
16.2356757
20
14.2790179
40
0.3983935
50
178.438168
51
180.0083905
0
ARC
8
DEFAULT_255_1_234
10
16.0955359
20
14.2829231
40
0.4068601
50
163.2878735
51
180.5581814
0
ARC
8
DEFAULT_255_1_234
10
16.0153621
20
14.304984
40
0.3237344
50
133.454115
51
162.9470031
0
ARC
8
DEFAULT_255_1_234
10
16.0332162
20
14.286
40
0.349795
50
100.7869394
51
133.4384016
0
ARC
8
DEFAULT_255_1_234
10
16.0679934
20
14.1311319
40
0.5084616
50
89.6605301
51
101.3704185
0
ARC
8
DEFAULT_255_1_234
10
16.0746273
20
14.1372496
40
0.502348
50
78.2171172
51
90.4130393
0
ARC
8
DEFAULT_255_1_234
10
16.1101351
20
14.2996637
40
0.3361092
50
55.9268222
51
78.4888551
0
ARC
8
DEFAULT_255_1_234
10
16.1297791
20
14.3335324
40
0.2970617
50
47.9292255
51
55.4054003
0
ARC
8
DEFAULT_255_1_234
10
16.1399352
20
14.3438502
40
0.2825983
50
4.3347696
51
48.0560701
0
ARC
8
DEFAULT_255_1_234
10
16.0303745
20
14.3268601
40
0.393225
50
359.925209
51
5.5967654
0
ARC
8
DEFAULT_255_1_234
10
16.0732637
20
14.3324816
40
0.3503892
50
337.8914096
51
358.9967724
0
ARC
8
DEFAULT_255_1_234
10
15.8019049
20
14.4371706
40
0.6412172
50
326.9135351
51
338.3505194
0
ARC
8
DEFAULT_255_1_234
10
15.4033353
20
14.6926284
40
1.1146189
50
319.6472867
51
327.095818
0
ARC
8
DEFAULT_255_1_234
10
15.0200356
20
15.0088
40
1.6114559
50
317.2586784
51
319.9046139
0
LINE
8
DEFAULT_255_1_234
10
16.8508877
20
13.9898169
11
16.8508877
21
14.1110962
0
LINE
8
DEFAULT_255_1_234
10
16.8508877
20
14.1110962
11
16.9625289
21
14.1110962
0
LINE
8
DEFAULT_255_1_234
10
16.7721767
20
14.3167087
11
16.6235895
21
14.3167087
0
LINE
8
DEFAULT_255_1_234
10
16.6131482
20
13.7625188
11
16.7625386
21
13.7625188
0
LINE
8
DEFAULT_255_1_234
10
16.9625289
20
13.9898169
11
16.8508877
21
13.9898169
0
ARC
8
DEFAULT_255_1_234
10
16.9596155
20
14.4503713
40
0.3392876
50
270.4919872
51
281.8951556
0
ARC
8
DEFAULT_255_1_234
10
16.9837417
20
14.3401702
40
0.2264817
50
281.6691735
51
301.2943132
0
ARC
8
DEFAULT_255_1_234
10
17.0007627
20
14.3090304
40
0.1910381
50
301.7833094
51
311.7545298
0
ARC
8
DEFAULT_255_1_234
10
17.0099203
20
14.2988748
40
0.1773635
50
311.7323931
51
354.2802411
0
ARC
8
DEFAULT_255_1_234
10
16.9372828
20
14.3113722
40
0.2509385
50
353.0937916
51
0.1181479
0
ARC
8
DEFAULT_255_1_234
10
16.8911613
20
14.3161386
40
0.2970898
50
359.1805295
51
15.0453146
0
ARC
8
DEFAULT_255_1_234
10
17.025745
20
14.3553992
40
0.1569564
50
13.9577229
51
77.6713066
0
ARC
8
DEFAULT_255_1_234
10
16.9870979
20
14.2168949
40
0.3006298
50
76.1116566
51
90.7026153
0
ARC
8
DEFAULT_255_1_234
10
16.9811817
20
14.2442545
40
0.2732568
50
89.5324876
51
103.531937
0
ARC
8
DEFAULT_255_1_234
10
16.9611261
20
14.3241884
40
0.1908508
50
103.2931773
51
133.5619022
0
ARC
8
DEFAULT_255_1_234
10
16.956675
20
14.3301375
40
0.1834746
50
133.8349307
51
173.5344437
0
ARC
8
DEFAULT_255_1_234
10
17.0289793
20
14.3173213
40
0.2568033
50
172.5096846
51
180.1366907
0
ARC
8
DEFAULT_255_1_234
10
16.9338687
20
14.3207622
40
0.3103056
50
155.3484492
51
180.7484736
0
ARC
8
DEFAULT_255_1_234
10
16.9289776
20
14.3178846
40
0.3070957
50
131.5744599
51
154.4798489
0
ARC
8
DEFAULT_255_1_234
10
16.9602923
20
14.286231
40
0.3515643
50
96.9875458
51
131.9690667
0
ARC
8
DEFAULT_255_1_234
10
16.9822403
20
14.1616636
40
0.4779224
50
89.8596053
51
97.7825159
0
ARC
8
DEFAULT_255_1_234
10
16.9870466
20
14.1354616
40
0.5041361
50
78.3655447
51
90.4131539
0
ARC
8
DEFAULT_255_1_234
10
17.0228384
20
14.3013887
40
0.3344039
50
56.6229102
51
78.638727
0
ARC
8
DEFAULT_255_1_234
10
17.0443328
20
14.3389805
40
0.2912001
50
47.0253525
51
56.0854072
0
ARC
8
DEFAULT_255_1_234
10
17.0463108
20
14.3429223
40
0.2869704
50
10.9208013
51
46.7778124
0
ARC
8
DEFAULT_255_1_234
10
16.9099174
20
14.3113857
40
0.426899
50
359.6364486
51
11.6087304
0
ARC
8
DEFAULT_255_1_234
10
17.0934018
20
14.3098752
40
0.243409
50
332.3549906
51
359.7179418
0
ARC
8
DEFAULT_255_1_234
10
17.028362
20
14.3407142
40
0.3153459
50
325.2333722
51
332.8745602
0
ARC
8
DEFAULT_255_1_234
10
17.0436244
20
14.3300828
40
0.2967456
50
292.9802137
51
325.2392345
0
ARC
8
DEFAULT_255_1_234
10
17.0161617
20
14.3834863
40
0.3566604
50
292.5402179
51
293.6924929
0
ARC
8
DEFAULT_255_1_234
10
17.0554213
20
13.7380091
40
0.3307468
50
57.6435486
51
72.8625112
0
ARC
8
DEFAULT_255_1_234
10
17.0908713
20
13.7954549
40
0.2632492
50
36.7248896
51
57.4697979
0
ARC
8
DEFAULT_255_1_234
10
17.0897346
20
13.796722
40
0.2634081
50
8.0545065
51
36.356114
0
ARC
8
DEFAULT_255_1_234
10
17.0034531
20
13.7812174
40
0.3510261
50
359.8320645
51
8.5869982
0
ARC
8
DEFAULT_255_1_234
10
16.9659307
20
13.7764101
40
0.3885653
50
343.9829931
51
0.5571613
0
ARC
8
DEFAULT_255_1_234
10
17.0545504
20
13.7521438
40
0.2966924
50
311.6359546
51
343.7651759
0
ARC
8
DEFAULT_255_1_234
10
17.0167074
20
13.7948102
40
0.3537231
50
279.7829875
51
311.6255694
0
ARC
8
DEFAULT_255_1_234
10
16.986585
20
13.938528
40
0.5004971
50
269.7286406
51
280.3856417
0
ARC
8
DEFAULT_255_1_234
10
16.9803922
20
13.9343996
40
0.4963778
50
256.6828919
51
270.4412052
0
ARC
8
DEFAULT_255_1_234
10
16.9465218
20
13.7959394
40
0.3538406
50
229.4223008
51
256.8556159
0
ARC
8
DEFAULT_255_1_234
10
16.9050611
20
13.7492736
40
0.2914296
50
181.818294
51
229.6455059
0
ARC
8
DEFAULT_255_1_234
10
17.0090567
20
13.7623496
40
0.3959084
50
179.9755256
51
183.2323064
0
ARC
8
DEFAULT_255_1_234
10
16.9918313
20
13.7603037
40
0.2293034
50
179.4465117
51
196.2869258
0
ARC
8
DEFAULT_255_1_234
10
16.9430721
20
13.7469651
40
0.1787621
50
196.5661473
51
227.705904
0
ARC
8
DEFAULT_255_1_234
10
16.9594816
20
13.7653155
40
0.2033784
50
227.7652068
51
257.8762805
0
ARC
8
DEFAULT_255_1_234
10
16.9819786
20
13.8596156
40
0.3003081
50
257.4584385
51
270.426602
0
ARC
8
DEFAULT_255_1_234
10
16.9865352
20
13.8885996
40
0.329292
50
269.5962073
51
280.8789248
0
ARC
8
DEFAULT_255_1_234
10
17.0094881
20
13.7739685
40
0.2123908
50
280.6346389
51
299.8595945
0
ARC
8
DEFAULT_255_1_234
10
17.0285788
20
13.7377212
40
0.171457
50
300.3576302
51
314.5517981
0
ARC
8
DEFAULT_255_1_234
10
17.0202848
20
13.7437919
40
0.1816095
50
315.0728369
51
345.0431014
0
ARC
8
DEFAULT_255_1_234
10
16.9279662
20
13.7706841
40
0.2777492
50
344.5986631
51
357.9269593
0
ARC
8
DEFAULT_255_1_234
10
16.8383989
20
13.7768276
40
0.3674917
50
357.4748886
51
0.0231117
0
ARC
8
DEFAULT_255_1_234
10
16.9407098
20
13.7792679
40
0.2651907
50
359.5047933
51
13.4239635
0
ARC
8
DEFAULT_255_1_234
10
17.0273741
20
13.8014478
40
0.1757509
50
12.9498199
51
48.7551375
0
ARC
8
DEFAULT_255_1_234
10
17.0091475
20
13.77654
40
0.2065134
50
49.5088623
51
72.1836453
0
ARC
8
DEFAULT_255_1_234
10
16.9733628
20
13.6703291
40
0.3185836
50
71.9010081
51
84.3554254
0
ARC
8
DEFAULT_255_1_234
10
16.957226
20
13.5342326
40
0.4556151
50
84.0193428
51
89.333121
0
ENDSEC
0
EOF