0
SECTION
2
HEADER
9
$MEASUREMENT
70
1
0
ENDSEC
0
SECTION
2
TABLES
0
TABLE
2
LTYPE
0
LTYPE
72
65
70
64
2
CONTINUOUS
3
______
73
0
40
0
0
ENDTAB
0
TABLE
2
LAYER
0
LAYER
2
DEFAULT_255_2_778
70
0
62
255
6
CONTINUOUS
0
LAYER
2
DEFAULT_255_1_234
70
0
62
255
6
CONTINUOUS
0
ENDTAB
0
ENDSEC
0
SECTION
2
ENTITIES
0
LINE
8
DEFAULT_255_2_778
10
8.135967
20
10.4510499
11
29.302667
21
10.4510499
0
LINE
8
DEFAULT_255_2_778
10
29.302667
20
10.4510499
11
29.302667
21
2.5135499
0
LINE
8
DEFAULT_255_2_778
10
29.302667
20
2.5135499
11
8.135967
21
2.5135499
0
LINE
8
DEFAULT_255_2_778
10
8.135967
20
2.5135499
11
8.135967
21
10.4510499
0
LINE
8
DEFAULT_255_2_778
10
21.3651
20
2.5135499
11
21.3651
21
10.4510499
0
LINE
8
DEFAULT_255_2_778
10
10.7818417
20
2.5135499
11
10.7818417
21
10.4510499
0
LINE
8
DEFAULT_255_2_778
10
10.7818417
20
10.4510499
11
10.1203417
21
8.4666499
0
LINE
8
DEFAULT_255_2_778
10
10.1203417
20
8.4666499
11
11.4432417
21
8.4666499
0
LINE
8
DEFAULT_255_2_778
10
11.4432417
20
8.4666499
11
10.7818417
21
10.4510499
0
LINE
8
DEFAULT_255_2_778
10
24.0109834
20
2.5135499
11
26.6567834
21
10.4510499
0
LINE
8
DEFAULT_255_2_778
10
26.6567834
20
10.4510499
11
26.6567834
21
8.3343499
0
LINE
8
DEFAULT_255_2_778
10
26.6567834
20
8.3343499
11
25.4661834
21
8.8635499
0
LINE
8
DEFAULT_255_2_778
10
25.4661834
20
8.8635499
11
26.6567834
21
10.4510499
0
LINE
8
DEFAULT_255_2_778
10
15.4119417
20
5.1593
11
16.7348417
21
5.1593
0
LINE
8
DEFAULT_255_2_778
10
16.0734
20
7.8051499
11
16.0734
21
15.7426499
0
LINE
8
DEFAULT_255_2_778
10
16.0734
20
5.1593499
11
16.0734
21
-2.7781501
0
LINE
8
DEFAULT_255_2_778
10
18.7193
20
7.8051499
11
18.7193
21
15.7426499
0
LINE
8
DEFAULT_255_2_778
10
23.3494417
20
7.8052
11
24.6723417
21
7.8052
0
LINE
8
DEFAULT_255_2_778
10
24.0109
20
7.8052166
11
24.0109
21
10.4510166
0
LINE
8
DEFAULT_255_2_778
10
8.1358834
20
3.3073
11
5.4900834
21
3.3073
0
LINE
8
DEFAULT_255_2_778
10
8.1358834
20
4.8948
11
5.4900834
21
4.8948
0
LINE
8
DEFAULT_255_2_778
10
5.4901
20
2.5135166
11
5.4901
21
5.1593166
0
ARC
8
DEFAULT_255_2_778
10
5.4886557
20
5.8222443
40
0.6600157
50
89.871003
51
180.128997
0
ARC
8
DEFAULT_255_2_778
10
5.491549
20
5.8222655
40
0.6599943
50
359.8691577
51
90.1221758
0
ARC
8
DEFAULT_255_2_778
10
5.4915705
20
5.8193295
40
0.6599728
50
269.8759594
51
0.1240406
0
ARC
8
DEFAULT_255_2_778
10
5.4886345
20
5.8193508
40
0.6599942
50
179.8778094
51
270.1308423
0
LINE
8
DEFAULT_255_2_778
10
4.8286417
20
5.8207583
11
4.8286417
21
5.8207583
0
LINE
8
DEFAULT_255_2_778
10
15.4119417
20
7.8052
11
16.7348417
21
7.8052
0
LINE
8
DEFAULT_255_2_778
10
18.0578417
20
7.8052
11
19.3807417
21
7.8052
0
LINE
8
DEFAULT_255_2_778
10
29.3026
20
2.513525
11
32.4776
21
2.513525
0
LINE
8
DEFAULT_255_2_778
10
32.4776
20
2.513525
11
32.4776
21
4.894725
0
LINE
8
DEFAULT_255_2_778
10
32.4776
20
4.894725
11
31.8426
21
4.894725
0
LINE
8
DEFAULT_255_2_778
10
31.8426
20
4.894725
11
31.5251
21
4.101025
0
LINE
8
DEFAULT_255_2_778
10
31.5251
20
4.101025
11
31.2076
21
4.894725
0
LINE
8
DEFAULT_255_2_778
10
31.2076
20
4.894725
11
30.5726
21
4.894725
0
LINE
8
DEFAULT_255_2_778
10
30.5726
20
4.894725
11
30.2551
21
4.101025
0
LINE
8
DEFAULT_255_2_778
10
30.2551
20
4.101025
11
29.9376
21
4.894725
0
LINE
8
DEFAULT_255_2_778
10
29.9376
20
4.894725
11
29.3026
21
4.894725
0
LINE
8
DEFAULT_255_2_778
10
29.3026
20
4.894725
11
29.3026
21
2.513525
0
LINE
8
DEFAULT_255_2_778
10
30.8901
20
6.4822667
11
30.8901
21
5.4239667
0
LINE
8
DEFAULT_255_2_778
10
13.4276
20
10.4510499
11
13.4276
21
2.5135499
0
LINE
8
DEFAULT_255_1_234
10
13.5605137
20
-0.6674567
11
13.5605137
21
-1.8425
0
LINE
8
DEFAULT_255_1_234
10
13.5605137
20
-1.8425
11
13.4111234
21
-1.8425
0
LINE
8
DEFAULT_255_1_234
10
13.4111234
20
-1.8425
11
13.4111234
21
-0.8521867
0
LINE
8
DEFAULT_255_1_234
10
13.4111234
20
-0.8521867
11
13.1115396
21
-0.9622215
0
LINE
8
DEFAULT_255_1_234
10
13.1115396
20
-0.9622215
11
13.1115396
21
-0.8272883
0
LINE
8
DEFAULT_255_1_234
10
13.1115396
20
-0.8272883
11
13.5372217
21
-0.6674567
0
LINE
8
DEFAULT_255_1_234
10
13.5372217
20
-0.6674567
11
13.5605137
21
-0.6674567
0
LINE
8
DEFAULT_255_1_234
10
14.1091119
20
13.5753792
11
14.1091119
21
13.4541
0
LINE
8
DEFAULT_255_1_234
10
14.1091119
20
13.4541
11
13.342884
21
13.4541
0
LINE
8
DEFAULT_255_1_234
10
13.342884
20
13.4541
11
13.342884
21
13.5609221
0
LINE
8
DEFAULT_255_1_234
10
13.342884
20
13.5609221
11
13.7476836
21
14.0106995
0
LINE
8
DEFAULT_255_1_234
10
13.4689823
20
14.2789595
11
13.3203952
21
14.2789595
0
LINE
8
DEFAULT_255_1_234
10
13.8352296
20
13.9151218
11
13.5219918
21
13.5753792
0
LINE
8
DEFAULT_255_1_234
10
13.5219918
20
13.5753792
11
14.1091119
21
13.5753792
0
ARC
8
DEFAULT_255_1_234
10
12.398667
20
15.2036527
40
1.8008286
50
318.5132453
51
320.7828378
0
ARC
8
DEFAULT_255_1_234
10
12.9273644
20
14.7733426
40
1.1191493
50
320.7372736
51
323.9737074
0
ARC
8
DEFAULT_255_1_234
10
13.3193501
20
14.4893361
40
0.6350923
50
323.8961724
51
328.6421089
0
ARC
8
DEFAULT_255_1_234
10
13.5240096
20
14.3631031
40
0.3946393
50
328.8299013
51
331.789948
0
ARC
8
DEFAULT_255_1_234
10
13.6237274
20
14.3116509
40
0.2824501
50
331.4255242
51
352.9364833
0
ARC
8
DEFAULT_255_1_234
10
13.6373775
20
14.3085976
40
0.2685315
50
353.2248685
51
0.0169286
0
ARC
8
DEFAULT_255_1_234
10
13.6583652
20
14.310895
40
0.2475536
50
359.4866256
51
15.9339782
0
ARC
8
DEFAULT_255_1_234
10
13.7090637
20
14.3245286
40
0.1950618
50
16.1714718
51
43.5284424
0
ARC
8
DEFAULT_255_1_234
10
13.7167946
20
14.3322573
40
0.184134
50
43.4415429
51
83.1661404
0
ARC
8
DEFAULT_255_1_234
10
13.7033864
20
14.2585771
40
0.258926
50
82.160215
51
90.1505798
0
ARC
8
DEFAULT_255_1_234
10
13.7002291
20
14.2048865
40
0.3126255
50
89.5460705
51
102.5418777
0
ARC
8
DEFAULT_255_1_234
10
13.6759377
20
14.3079665
40
0.2067346
50
102.1739365
51
129.2061916
0
ARC
8
DEFAULT_255_1_234
10
13.6680449
20
14.3204094
40
0.1921118
50
129.7279328
51
135.7542026
0
ARC
8
DEFAULT_255_1_234
10
13.6801977
20
14.3107045
40
0.2075944
50
136.175737
51
166.3674722
0
ARC
8
DEFAULT_255_1_234
10
13.7808896
20
14.2837182
40
0.3118201
50
165.9092917
51
178.8683903
0
ARC
8
DEFAULT_255_1_234
10
13.8673757
20
14.2790179
40
0.3983935
50
178.438168
51
180.0083905
0
ARC
8
DEFAULT_255_1_234
10
13.7272359
20
14.2829231
40
0.4068601
50
163.2878735
51
180.5581814
0
ARC
8
DEFAULT_255_1_234
10
13.6470621
20
14.304984
40
0.3237344
50
133.454115
51
162.9470031
0
ARC
8
DEFAULT_255_1_234
10
13.6649162
20
14.286
40
0.349795
50
100.7869394
51
133.4384016
0
ARC
8
DEFAULT_255_1_234
10
13.6996934
20
14.1311319
40
0.5084616
50
89.6605301
51
101.3704185
0
ARC
8
DEFAULT_255_1_234
10
13.7063273
20
14.1372496
40
0.502348
50
78.2171172
51
90.4130393
0
ARC
8
DEFAULT_255_1_234
10
13.7418351
20
14.2996637
40
0.3361092
50
55.9268222
51
78.4888551
0
ARC
8
DEFAULT_255_1_234
10
13.7614791
20
14.3335324
40
0.2970617
50
47.9292255
51
55.4054003
0
ARC
8
DEFAULT_255_1_234
10
13.7716352
20
14.3438502
40
0.2825983
50
4.3347696
51
48.0560701
0
ARC
8
DEFAULT_255_1_234
10
13.6620745
20
14.3268601
40
0.393225
50
359.925209
51
5.5967654
0
ARC
8
DEFAULT_255_1_234
10
13.7049637
20
14.3324816
40
0.3503892
50
337.8914096
51
358.9967724
0
ARC
8
DEFAULT_255_1_234
10
13.4336049
20
14.4371706
40
0.6412172
50
326.9135351
51
338.3505194
0
ARC
8
DEFAULT_255_1_234
10
13.0350353
20
14.6926284
40
1.1146189
50
319.6472867
51
327.095818
0
ARC
8
DEFAULT_255_1_234
10
12.6517356
20
15.0088
40
1.6114559
50
317.2586784
51
319.9046139
0
LINE
8
DEFAULT_255_1_234
10
14.8938127
20
14.6235211
11
14.8938127
21
13.846852
0
LINE
8
DEFAULT_255_1_234
10
14.8938127
20
13.846852
11
15.0560538
21
13.846852
0
LINE
8
DEFAULT_255_1_234
10
15.0560538
20
13.846852
11
15.0560538
21
13.7255728
0
LINE
8
DEFAULT_255_1_234
10
15.0560538
20
13.7255728
11
14.8938127
21
13.7255728
0
LINE
8
DEFAULT_255_1_234
10
14.8938127
20
13.7255728
11
14.8938127
21
13.4541
0
LINE
8
DEFAULT_255_1_234
10
14.8938127
20
13.4541
11
14.7444224
21
13.4541
0
LINE
8
DEFAULT_255_1_234
10
14.7444224
20
13.4541
11
14.7444224
21
13.7255728
0
LINE
8
DEFAULT_255_1_234
10
14.7444224
20
13.7255728
11
14.2119181
21
13.7255728
0
LINE
8
DEFAULT_255_1_234
10
14.2119181
20
13.7255728
11
14.2119181
21
13.8131187
0
LINE
8
DEFAULT_255_1_234
10
14.2119181
20
13.8131187
11
14.7355875
21
14.6235211
0
LINE
8
DEFAULT_255_1_234
10
14.7355875
20
14.6235211
11
14.8938127
21
14.6235211
0
LINE
8
DEFAULT_255_1_234
10
14.7267525
20
14.3881912
11
14.3805846
21
13.846852
0
LINE
8
DEFAULT_255_1_234
10
14.3805846
20
13.846852
11
14.7444224
21
13.846852
0
LINE
8
DEFAULT_255_1_234
10
14.7444224
20
13.846852
11
14.7444224
21
14.4203181
0
LINE
8
DEFAULT_255_1_234
10
14.7444224
20
14.4203181
11
14.7267525
21
14.3881912
0
ENDSEC
0
EOF