0
SECTION
2
HEADER
9
$MEASUREMENT
70
1
0
ENDSEC
0
SECTION
2
TABLES
0
TABLE
2
LTYPE
0
LTYPE
72
65
70
64
2
CONTINUOUS
3
______
73
0
40
0
0
ENDTAB
0
TABLE
2
LAYER
0
LAYER
2
DEFAULT_255_2_778
70
0
62
255
6
CONTINUOUS
0
LAYER
2
DEFAULT_255_1_234
70
0
62
255
6
CONTINUOUS
0
ENDTAB
0
ENDSEC
0
SECTION
2
ENTITIES
0
LINE
8
DEFAULT_255_2_778
10
8.135967
20
10.4510499
11
29.302667
21
10.4510499
0
LINE
8
DEFAULT_255_2_778
10
29.302667
20
10.4510499
11
29.302667
21
2.5135499
0
LINE
8
DEFAULT_255_2_778
10
29.302667
20
2.5135499
11
8.135967
21
2.5135499
0
LINE
8
DEFAULT_255_2_778
10
8.135967
20
2.5135499
11
8.135967
21
10.4510499
0
LINE
8
DEFAULT_255_2_778
10
10.7817834
20
10.4510499
11
10.7817834
21
8.3343499
0
LINE
8
DEFAULT_255_2_778
10
10.7817834
20
8.3343499
11
11.9723834
21
8.8635499
0
LINE
8
DEFAULT_255_2_778
10
11.9723834
20
8.8635499
11
10.7817834
21
10.4510499
0
LINE
8
DEFAULT_255_2_778
10
10.7817834
20
10.4510499
11
13.4275834
21
2.5135499
0
LINE
8
DEFAULT_255_2_778
10
18.7193
20
2.5135499
11
18.7193
21
10.4510499
0
LINE
8
DEFAULT_255_2_778
10
24.0109834
20
2.5135499
11
26.6567834
21
10.4510499
0
LINE
8
DEFAULT_255_2_778
10
26.6567834
20
10.4510499
11
26.6567834
21
8.3343499
0
LINE
8
DEFAULT_255_2_778
10
26.6567834
20
8.3343499
11
25.4661834
21
8.8635499
0
LINE
8
DEFAULT_255_2_778
10
25.4661834
20
8.8635499
11
26.6567834
21
10.4510499
0
LINE
8
DEFAULT_255_2_778
10
26.6568
20
-2.7781501
11
26.6568
21
5.1593499
0
LINE
8
DEFAULT_255_2_778
10
25.9953417
20
5.1593
11
27.3182417
21
5.1593
0
LINE
8
DEFAULT_255_2_778
10
24.0109
20
2.5135333
11
24.0109
21
-2.7781667
0
LINE
8
DEFAULT_255_2_778
10
21.3651
20
2.5135333
11
21.3651
21
-2.7781667
0
LINE
8
DEFAULT_255_2_778
10
26.6568
20
10.4509333
11
26.6568
21
15.7426333
0
LINE
8
DEFAULT_255_2_778
10
21.3651
20
10.4509333
11
21.3651
21
15.7426333
0
LINE
8
DEFAULT_255_2_778
10
10.7818
20
2.5135166
11
10.7818
21
5.1593166
0
LINE
8
DEFAULT_255_2_778
10
10.1203417
20
5.1593
11
11.4432417
21
5.1593
0
LINE
8
DEFAULT_255_2_778
10
16.0734
20
2.5135499
11
16.0734
21
10.4510499
0
LINE
8
DEFAULT_255_2_778
10
15.4119417
20
4.4978875
11
16.7348417
21
4.4978875
0
LINE
8
DEFAULT_255_2_778
10
16.7348417
20
4.4978875
11
16.0734417
21
2.5134875
0
LINE
8
DEFAULT_255_2_778
10
16.0734417
20
2.5134875
11
15.4119417
21
4.4978875
0
LINE
8
DEFAULT_255_2_778
10
21.3651
20
2.5135499
11
21.3651
21
10.4510499
0
LINE
8
DEFAULT_255_2_778
10
20.7036417
20
4.4978875
11
22.0265417
21
4.4978875
0
LINE
8
DEFAULT_255_2_778
10
22.0265417
20
4.4978875
11
21.3651417
21
2.5134875
0
LINE
8
DEFAULT_255_2_778
10
21.3651417
20
2.5134875
11
20.7036417
21
4.4978875
0
LINE
8
DEFAULT_255_2_778
10
29.3026
20
2.513525
11
32.4776
21
2.513525
0
LINE
8
DEFAULT_255_2_778
10
32.4776
20
2.513525
11
32.4776
21
4.894725
0
LINE
8
DEFAULT_255_2_778
10
32.4776
20
4.894725
11
31.8426
21
4.894725
0
LINE
8
DEFAULT_255_2_778
10
31.8426
20
4.894725
11
31.5251
21
4.101025
0
LINE
8
DEFAULT_255_2_778
10
31.5251
20
4.101025
11
31.2076
21
4.894725
0
LINE
8
DEFAULT_255_2_778
10
31.2076
20
4.894725
11
30.5726
21
4.894725
0
LINE
8
DEFAULT_255_2_778
10
30.5726
20
4.894725
11
30.2551
21
4.101025
0
LINE
8
DEFAULT_255_2_778
10
30.2551
20
4.101025
11
29.9376
21
4.894725
0
LINE
8
DEFAULT_255_2_778
10
29.9376
20
4.894725
11
29.3026
21
4.894725
0
LINE
8
DEFAULT_255_2_778
10
29.3026
20
4.894725
11
29.3026
21
2.513525
0
LINE
8
DEFAULT_255_2_778
10
30.8901
20
6.4822667
11
30.8901
21
5.4239667
0
LINE
8
DEFAULT_255_2_778
10
5.4901
20
5.6885
11
5.4901
21
2.5135
0
LINE
8
DEFAULT_255_2_778
10
5.4900834
20
4.8948
11
8.1358834
21
4.8948
0
LINE
8
DEFAULT_255_2_778
10
5.4900834
20
3.3073
11
8.1358834
21
3.3073
0
ARC
8
DEFAULT_255_2_778
10
5.4886557
20
5.8222443
40
0.6600157
50
89.871003
51
180.128997
0
ARC
8
DEFAULT_255_2_778
10
5.491549
20
5.8222655
40
0.6599943
50
359.8691577
51
90.1221758
0
ARC
8
DEFAULT_255_2_778
10
5.4915705
20
5.8193295
40
0.6599728
50
269.8759594
51
0.1240406
0
ARC
8
DEFAULT_255_2_778
10
5.4886345
20
5.8193508
40
0.6599942
50
179.8778094
51
270.1308423
0
LINE
8
DEFAULT_255_2_778
10
4.8286417
20
5.8207583
11
4.8286417
21
5.8207583
0
LINE
8
DEFAULT_255_1_234
10
21.6325137
20
-0.6674567
11
21.6325137
21
-1.8425
0
LINE
8
DEFAULT_255_1_234
10
21.6325137
20
-1.8425
11
21.4831234
21
-1.8425
0
LINE
8
DEFAULT_255_1_234
10
21.4831234
20
-1.8425
11
21.4831234
21
-0.8521867
0
LINE
8
DEFAULT_255_1_234
10
21.4831234
20
-0.8521867
11
21.1835396
21
-0.9622215
0
LINE
8
DEFAULT_255_1_234
10
21.1835396
20
-0.9622215
11
21.1835396
21
-0.8272883
0
LINE
8
DEFAULT_255_1_234
10
21.1835396
20
-0.8272883
11
21.6092217
21
-0.6674567
0
LINE
8
DEFAULT_255_1_234
10
21.6092217
20
-0.6674567
11
21.6325137
21
-0.6674567
0
LINE
8
DEFAULT_255_1_234
10
22.2838877
20
-1.3067831
11
22.2838877
21
-1.1855038
0
LINE
8
DEFAULT_255_1_234
10
22.2838877
20
-1.1855038
11
22.3955289
21
-1.1855038
0
LINE
8
DEFAULT_255_1_234
10
22.2051767
20
-0.9798913
11
22.0565895
21
-0.9798913
0
LINE
8
DEFAULT_255_1_234
10
22.0461482
20
-1.5340812
11
22.1955386
21
-1.5340812
0
LINE
8
DEFAULT_255_1_234
10
22.3955289
20
-1.3067831
11
22.2838877
21
-1.3067831
0
ARC
8
DEFAULT_255_1_234
10
22.3926155
20
-0.8462287
40
0.3392876
50
270.4919872
51
281.8951556
0
ARC
8
DEFAULT_255_1_234
10
22.4167417
20
-0.9564298
40
0.2264817
50
281.6691735
51
301.2943132
0
ARC
8
DEFAULT_255_1_234
10
22.4337627
20
-0.9875696
40
0.1910381
50
301.7833094
51
311.7545298
0
ARC
8
DEFAULT_255_1_234
10
22.4429203
20
-0.9977252
40
0.1773635
50
311.7323931
51
354.2802411
0
ARC
8
DEFAULT_255_1_234
10
22.3702828
20
-0.9852278
40
0.2509385
50
353.0937916
51
0.1181479
0
ARC
8
DEFAULT_255_1_234
10
22.3241613
20
-0.9804614
40
0.2970898
50
359.1805295
51
15.0453146
0
ARC
8
DEFAULT_255_1_234
10
22.458745
20
-0.9412008
40
0.1569564
50
13.9577229
51
77.6713066
0
ARC
8
DEFAULT_255_1_234
10
22.4200979
20
-1.0797051
40
0.3006298
50
76.1116566
51
90.7026153
0
ARC
8
DEFAULT_255_1_234
10
22.4141817
20
-1.0523455
40
0.2732568
50
89.5324876
51
103.531937
0
ARC
8
DEFAULT_255_1_234
10
22.3941261
20
-0.9724116
40
0.1908508
50
103.2931773
51
133.5619022
0
ARC
8
DEFAULT_255_1_234
10
22.389675
20
-0.9664625
40
0.1834746
50
133.8349307
51
173.5344437
0
ARC
8
DEFAULT_255_1_234
10
22.4619793
20
-0.9792787
40
0.2568033
50
172.5096846
51
180.1366907
0
ARC
8
DEFAULT_255_1_234
10
22.3668687
20
-0.9758378
40
0.3103056
50
155.3484492
51
180.7484736
0
ARC
8
DEFAULT_255_1_234
10
22.3619776
20
-0.9787154
40
0.3070957
50
131.5744599
51
154.4798489
0
ARC
8
DEFAULT_255_1_234
10
22.3932923
20
-1.010369
40
0.3515643
50
96.9875458
51
131.9690667
0
ARC
8
DEFAULT_255_1_234
10
22.4152403
20
-1.1349364
40
0.4779224
50
89.8596053
51
97.7825159
0
ARC
8
DEFAULT_255_1_234
10
22.4200466
20
-1.1611384
40
0.5041361
50
78.3655447
51
90.4131539
0
ARC
8
DEFAULT_255_1_234
10
22.4558384
20
-0.9952113
40
0.3344039
50
56.6229102
51
78.638727
0
ARC
8
DEFAULT_255_1_234
10
22.4773328
20
-0.9576195
40
0.2912001
50
47.0253525
51
56.0854072
0
ARC
8
DEFAULT_255_1_234
10
22.4793108
20
-0.9536777
40
0.2869704
50
10.9208013
51
46.7778124
0
ARC
8
DEFAULT_255_1_234
10
22.3429174
20
-0.9852143
40
0.426899
50
359.6364486
51
11.6087304
0
ARC
8
DEFAULT_255_1_234
10
22.5264018
20
-0.9867248
40
0.243409
50
332.3549906
51
359.7179418
0
ARC
8
DEFAULT_255_1_234
10
22.461362
20
-0.9558858
40
0.3153459
50
325.2333722
51
332.8745602
0
ARC
8
DEFAULT_255_1_234
10
22.4766244
20
-0.9665172
40
0.2967456
50
292.9802137
51
325.2392345
0
ARC
8
DEFAULT_255_1_234
10
22.4491617
20
-0.9131137
40
0.3566604
50
292.5402179
51
293.6924929
0
ARC
8
DEFAULT_255_1_234
10
22.4884213
20
-1.5585909
40
0.3307468
50
57.6435486
51
72.8625112
0
ARC
8
DEFAULT_255_1_234
10
22.5238713
20
-1.5011451
40
0.2632492
50
36.7248896
51
57.4697979
0
ARC
8
DEFAULT_255_1_234
10
22.5227346
20
-1.499878
40
0.2634081
50
8.0545065
51
36.356114
0
ARC
8
DEFAULT_255_1_234
10
22.4364531
20
-1.5153826
40
0.3510261
50
359.8320645
51
8.5869982
0
ARC
8
DEFAULT_255_1_234
10
22.3989307
20
-1.5201899
40
0.3885653
50
343.9829931
51
0.5571613
0
ARC
8
DEFAULT_255_1_234
10
22.4875504
20
-1.5444562
40
0.2966924
50
311.6359546
51
343.7651759
0
ARC
8
DEFAULT_255_1_234
10
22.4497074
20
-1.5017898
40
0.3537231
50
279.7829875
51
311.6255694
0
ARC
8
DEFAULT_255_1_234
10
22.419585
20
-1.358072
40
0.5004971
50
269.7286406
51
280.3856417
0
ARC
8
DEFAULT_255_1_234
10
22.4133922
20
-1.3622004
40
0.4963778
50
256.6828919
51
270.4412052
0
ARC
8
DEFAULT_255_1_234
10
22.3795218
20
-1.5006606
40
0.3538406
50
229.4223008
51
256.8556159
0
ARC
8
DEFAULT_255_1_234
10
22.3380611
20
-1.5473264
40
0.2914296
50
181.818294
51
229.6455059
0
ARC
8
DEFAULT_255_1_234
10
22.4420567
20
-1.5342504
40
0.3959084
50
179.9755256
51
183.2323064
0
ARC
8
DEFAULT_255_1_234
10
22.4248313
20
-1.5362963
40
0.2293034
50
179.4465117
51
196.2869258
0
ARC
8
DEFAULT_255_1_234
10
22.3760721
20
-1.5496349
40
0.1787621
50
196.5661473
51
227.705904
0
ARC
8
DEFAULT_255_1_234
10
22.3924816
20
-1.5312845
40
0.2033784
50
227.7652068
51
257.8762805
0
ARC
8
DEFAULT_255_1_234
10
22.4149786
20
-1.4369844
40
0.3003081
50
257.4584385
51
270.426602
0
ARC
8
DEFAULT_255_1_234
10
22.4195352
20
-1.4080004
40
0.329292
50
269.5962073
51
280.8789248
0
ARC
8
DEFAULT_255_1_234
10
22.4424881
20
-1.5226315
40
0.2123908
50
280.6346389
51
299.8595945
0
ARC
8
DEFAULT_255_1_234
10
22.4615788
20
-1.5588788
40
0.171457
50
300.3576302
51
314.5517981
0
ARC
8
DEFAULT_255_1_234
10
22.4532848
20
-1.5528081
40
0.1816095
50
315.0728369
51
345.0431014
0
ARC
8
DEFAULT_255_1_234
10
22.3609662
20
-1.5259159
40
0.2777492
50
344.5986631
51
357.9269593
0
ARC
8
DEFAULT_255_1_234
10
22.2713989
20
-1.5197724
40
0.3674917
50
357.4748886
51
0.0231117
0
ARC
8
DEFAULT_255_1_234
10
22.3737098
20
-1.5173321
40
0.2651907
50
359.5047933
51
13.4239635
0
ARC
8
DEFAULT_255_1_234
10
22.4603741
20
-1.4951522
40
0.1757509
50
12.9498199
51
48.7551375
0
ARC
8
DEFAULT_255_1_234
10
22.4421475
20
-1.52006
40
0.2065134
50
49.5088623
51
72.1836453
0
ARC
8
DEFAULT_255_1_234
10
22.4063628
20
-1.6262709
40
0.3185836
50
71.9010081
51
84.3554254
0
ARC
8
DEFAULT_255_1_234
10
22.390226
20
-1.7623674
40
0.4556151
50
84.0193428
51
89.333121
0
LINE
8
DEFAULT_255_1_234
10
23.1786233
20
-1.2867037
11
23.0597536
21
-1.2561831
0
LINE
8
DEFAULT_255_1_234
10
23.0597536
20
-1.2561831
11
23.1191885
21
-0.6730789
0
LINE
8
DEFAULT_255_1_234
10
23.1191885
20
-0.6730789
11
23.7183562
21
-0.6730789
0
LINE
8
DEFAULT_255_1_234
10
23.7183562
20
-0.6730789
11
23.7183562
21
-0.8104216
0
LINE
8
DEFAULT_255_1_234
10
23.7183562
20
-0.8104216
11
23.2452868
21
-0.8104216
0
LINE
8
DEFAULT_255_1_234
10
23.2452868
20
-0.8104216
11
23.2099471
21
-1.1292816
0
LINE
8
DEFAULT_255_1_234
10
23.0179886
20
-1.5348844
11
23.158544
21
-1.5348844
0
LINE
8
DEFAULT_255_1_234
10
23.2179789
20
-1.2545768
11
23.1786233
21
-1.2867037
0
ARC
8
DEFAULT_255_1_234
10
23.3954255
20
-1.447277
40
0.3681349
50
93.7182161
51
120.2538958
0
ARC
8
DEFAULT_255_1_234
10
23.4048518
20
-1.5280606
40
0.449379
50
89.9660152
51
94.2496022
0
ARC
8
DEFAULT_255_1_234
10
23.4089252
20
-1.4691451
40
0.390482
50
73.8043271
51
90.5585896
0
ARC
8
DEFAULT_255_1_234
10
23.4324149
20
-1.3833398
40
0.3015334
50
41.3071453
51
73.5430202
0
ARC
8
DEFAULT_255_1_234
10
23.3907976
20
-1.4191676
40
0.3564457
50
13.5075983
51
41.2174222
0
ARC
8
DEFAULT_255_1_234
10
23.226618
20
-1.4621514
40
0.5261351
50
1.1331335
51
13.8829381
0
ARC
8
DEFAULT_255_1_234
10
23.0854549
20
-1.4697335
40
0.6674378
50
359.9919444
51
1.544251
0
ARC
8
DEFAULT_255_1_234
10
23.2131375
20
-1.473872
40
0.5397702
50
347.8572367
51
0.4293338
0
ARC
8
DEFAULT_255_1_234
10
23.3881693
20
-1.5135264
40
0.3603188
50
323.673004
51
348.1672506
0
ARC
8
DEFAULT_255_1_234
10
23.4176201
20
-1.5314832
40
0.3259678
50
316.8171152
51
323.1492751
0
ARC
8
DEFAULT_255_1_234
10
23.423739
20
-1.535154
40
0.3189975
50
281.8396411
51
316.5457803
0
ARC
8
DEFAULT_255_1_234
10
23.3861654
20
-1.3796238
40
0.4789527
50
269.5770101
51
282.4214771
0
ARC
8
DEFAULT_255_1_234
10
23.3790465
20
-1.4009875
40
0.45759
50
256.2427136
51
270.4486331
0
ARC
8
DEFAULT_255_1_234
10
23.3491368
20
-1.5209771
40
0.3339303
50
228.9023911
51
256.3314342
0
ARC
8
DEFAULT_255_1_234
10
23.34176
20
-1.5326254
40
0.32031
50
193.753695
51
228.5271154
0
ARC
8
DEFAULT_255_1_234
10
23.4655554
20
-1.49632
40
0.4492253
50
184.924711
51
194.497588
0
ARC
8
DEFAULT_255_1_234
10
23.4848121
20
-1.4927409
40
0.3289787
50
187.3600538
51
198.6732863
0
ARC
8
DEFAULT_255_1_234
10
23.3798415
20
-1.5291326
40
0.217884
50
198.4451669
51
217.794479
0
ARC
8
DEFAULT_255_1_234
10
23.350259
20
-1.5500915
40
0.1816698
50
218.2887171
51
228.5612368
0
ARC
8
DEFAULT_255_1_234
10
23.3600377
20
-1.5369037
40
0.1980329
50
228.9654866
51
258.1234728
0
ARC
8
DEFAULT_255_1_234
10
23.3806087
20
-1.4488167
40
0.2884748
50
257.7258293
51
270.401361
0
ARC
8
DEFAULT_255_1_234
10
23.3850974
20
-1.4933179
40
0.2439788
50
269.4204404
51
286.4209037
0
ARC
8
DEFAULT_255_1_234
10
23.3999461
20
-1.5472343
40
0.1880666
50
286.7251356
51
320.600362
0
ARC
8
DEFAULT_255_1_234
10
23.3616286
20
-1.5161405
40
0.2374121
50
320.6712579
51
344.5441685
0
ARC
8
DEFAULT_255_1_234
10
23.2459612
20
-1.4821955
40
0.3579479
50
344.2412205
51
356.7357071
0
ARC
8
DEFAULT_255_1_234
10
23.1210761
20
-1.4718556
40
0.4832297
50
356.3548756
51
0.0500261
0
ARC
8
DEFAULT_255_1_234
10
23.254727
20
-1.468735
40
0.3495889
50
359.5576869
51
12.953486
0
ARC
8
DEFAULT_255_1_234
10
23.3602167
20
-1.4431566
40
0.2410532
50
12.6490276
51
41.6081334
0
ARC
8
DEFAULT_255_1_234
10
23.3832538
20
-1.4235679
40
0.2108218
50
41.7850273
51
85.9892764
0
ARC
8
DEFAULT_255_1_234
10
23.3709275
20
-1.5048538
40
0.2928454
50
84.6957577
51
90.0676183
0
ARC
8
DEFAULT_255_1_234
10
23.3685759
20
-1.5717284
40
0.3597255
50
89.6804936
51
99.1614436
0
ARC
8
DEFAULT_255_1_234
10
23.348039
20
-1.4489869
40
0.235281
50
98.9830931
51
113.8908934
0
ARC
8
DEFAULT_255_1_234
10
23.32508
20
-1.3948413
40
0.176479
50
114.1950727
51
127.3641004
0
LINE
8
DEFAULT_255_1_234
10
24.6913119
20
13.5753792
11
24.6913119
21
13.4541
0
LINE
8
DEFAULT_255_1_234
10
24.6913119
20
13.4541
11
23.925084
21
13.4541
0
LINE
8
DEFAULT_255_1_234
10
23.925084
20
13.4541
11
23.925084
21
13.5609221
0
LINE
8
DEFAULT_255_1_234
10
23.925084
20
13.5609221
11
24.3298836
21
14.0106995
0
LINE
8
DEFAULT_255_1_234
10
24.0511823
20
14.2789595
11
23.9025952
21
14.2789595
0
LINE
8
DEFAULT_255_1_234
10
24.4174296
20
13.9151218
11
24.1041918
21
13.5753792
0
LINE
8
DEFAULT_255_1_234
10
24.1041918
20
13.5753792
11
24.6913119
21
13.5753792
0
ARC
8
DEFAULT_255_1_234
10
22.980867
20
15.2036527
40
1.8008286
50
318.5132453
51
320.7828378
0
ARC
8
DEFAULT_255_1_234
10
23.5095644
20
14.7733426
40
1.1191493
50
320.7372736
51
323.9737074
0
ARC
8
DEFAULT_255_1_234
10
23.9015501
20
14.4893361
40
0.6350923
50
323.8961724
51
328.6421089
0
ARC
8
DEFAULT_255_1_234
10
24.1062096
20
14.3631031
40
0.3946393
50
328.8299013
51
331.789948
0
ARC
8
DEFAULT_255_1_234
10
24.2059274
20
14.3116509
40
0.2824501
50
331.4255242
51
352.9364833
0
ARC
8
DEFAULT_255_1_234
10
24.2195775
20
14.3085976
40
0.2685315
50
353.2248685
51
0.0169286
0
ARC
8
DEFAULT_255_1_234
10
24.2405652
20
14.310895
40
0.2475536
50
359.4866256
51
15.9339782
0
ARC
8
DEFAULT_255_1_234
10
24.2912637
20
14.3245286
40
0.1950618
50
16.1714718
51
43.5284424
0
ARC
8
DEFAULT_255_1_234
10
24.2989946
20
14.3322573
40
0.184134
50
43.4415429
51
83.1661404
0
ARC
8
DEFAULT_255_1_234
10
24.2855864
20
14.2585771
40
0.258926
50
82.160215
51
90.1505798
0
ARC
8
DEFAULT_255_1_234
10
24.2824291
20
14.2048865
40
0.3126255
50
89.5460705
51
102.5418777
0
ARC
8
DEFAULT_255_1_234
10
24.2581377
20
14.3079665
40
0.2067346
50
102.1739365
51
129.2061916
0
ARC
8
DEFAULT_255_1_234
10
24.2502449
20
14.3204094
40
0.1921118
50
129.7279328
51
135.7542026
0
ARC
8
DEFAULT_255_1_234
10
24.2623977
20
14.3107045
40
0.2075944
50
136.175737
51
166.3674722
0
ARC
8
DEFAULT_255_1_234
10
24.3630896
20
14.2837182
40
0.3118201
50
165.9092917
51
178.8683903
0
ARC
8
DEFAULT_255_1_234
10
24.4495757
20
14.2790179
40
0.3983935
50
178.438168
51
180.0083905
0
ARC
8
DEFAULT_255_1_234
10
24.3094359
20
14.2829231
40
0.4068601
50
163.2878735
51
180.5581814
0
ARC
8
DEFAULT_255_1_234
10
24.2292621
20
14.304984
40
0.3237344
50
133.454115
51
162.9470031
0
ARC
8
DEFAULT_255_1_234
10
24.2471162
20
14.286
40
0.349795
50
100.7869394
51
133.4384016
0
ARC
8
DEFAULT_255_1_234
10
24.2818934
20
14.1311319
40
0.5084616
50
89.6605301
51
101.3704185
0
ARC
8
DEFAULT_255_1_234
10
24.2885273
20
14.1372496
40
0.502348
50
78.2171172
51
90.4130393
0
ARC
8
DEFAULT_255_1_234
10
24.3240351
20
14.2996637
40
0.3361092
50
55.9268222
51
78.4888551
0
ARC
8
DEFAULT_255_1_234
10
24.3436791
20
14.3335324
40
0.2970617
50
47.9292255
51
55.4054003
0
ARC
8
DEFAULT_255_1_234
10
24.3538352
20
14.3438502
40
0.2825983
50
4.3347696
51
48.0560701
0
ARC
8
DEFAULT_255_1_234
10
24.2442745
20
14.3268601
40
0.393225
50
359.925209
51
5.5967654
0
ARC
8
DEFAULT_255_1_234
10
24.2871637
20
14.3324816
40
0.3503892
50
337.8914096
51
358.9967724
0
ARC
8
DEFAULT_255_1_234
10
24.0158049
20
14.4371706
40
0.6412172
50
326.9135351
51
338.3505194
0
ARC
8
DEFAULT_255_1_234
10
23.6172353
20
14.6926284
40
1.1146189
50
319.6472867
51
327.095818
0
ARC
8
DEFAULT_255_1_234
10
23.2339356
20
15.0088
40
1.6114559
50
317.2586784
51
319.9046139
0
LINE
8
DEFAULT_255_1_234
10
25.4760127
20
14.6235211
11
25.4760127
21
13.846852
0
LINE
8
DEFAULT_255_1_234
10
25.4760127
20
13.846852
11
25.6382538
21
13.846852
0
LINE
8
DEFAULT_255_1_234
10
25.6382538
20
13.846852
11
25.6382538
21
13.7255728
0
LINE
8
DEFAULT_255_1_234
10
25.6382538
20
13.7255728
11
25.4760127
21
13.7255728
0
LINE
8
DEFAULT_255_1_234
10
25.4760127
20
13.7255728
11
25.4760127
21
13.4541
0
LINE
8
DEFAULT_255_1_234
10
25.4760127
20
13.4541
11
25.3266224
21
13.4541
0
LINE
8
DEFAULT_255_1_234
10
25.3266224
20
13.4541
11
25.3266224
21
13.7255728
0
LINE
8
DEFAULT_255_1_234
10
25.3266224
20
13.7255728
11
24.7941181
21
13.7255728
0
LINE
8
DEFAULT_255_1_234
10
24.7941181
20
13.7255728
11
24.7941181
21
13.8131187
0
LINE
8
DEFAULT_255_1_234
10
24.7941181
20
13.8131187
11
25.3177875
21
14.6235211
0
LINE
8
DEFAULT_255_1_234
10
25.3177875
20
14.6235211
11
25.4760127
21
14.6235211
0
LINE
8
DEFAULT_255_1_234
10
25.3089525
20
14.3881912
11
24.9627846
21
13.846852
0
LINE
8
DEFAULT_255_1_234
10
24.9627846
20
13.846852
11
25.3266224
21
13.846852
0
LINE
8
DEFAULT_255_1_234
10
25.3266224
20
13.846852
11
25.3266224
21
14.4203181
0
LINE
8
DEFAULT_255_1_234
10
25.3266224
20
14.4203181
11
25.3089525
21
14.3881912
0
ENDSEC
0
EOF