0
SECTION
2
HEADER
9
$MEASUREMENT
70
1
0
ENDSEC
0
SECTION
2
TABLES
0
TABLE
2
LTYPE
0
LTYPE
72
65
70
64
2
CONTINUOUS
3
______
73
0
40
0
0
ENDTAB
0
TABLE
2
LAYER
0
LAYER
2
DEFAULT_255_2_778
70
0
62
255
6
CONTINUOUS
0
LAYER
2
DEFAULT_255_1_234
70
0
62
255
6
CONTINUOUS
0
ENDTAB
0
ENDSEC
0
SECTION
2
ENTITIES
0
LINE
8
DEFAULT_255_2_778
10
8.069567
20
10.4510499
11
29.236267
21
10.4510499
0
LINE
8
DEFAULT_255_2_778
10
29.236267
20
10.4510499
11
29.236267
21
2.5135499
0
LINE
8
DEFAULT_255_2_778
10
29.236267
20
2.5135499
11
8.069567
21
2.5135499
0
LINE
8
DEFAULT_255_2_778
10
8.069567
20
2.5135499
11
8.069567
21
10.4510499
0
LINE
8
DEFAULT_255_2_778
10
10.7153834
20
10.4510499
11
10.7153834
21
8.3343499
0
LINE
8
DEFAULT_255_2_778
10
10.7153834
20
8.3343499
11
11.9059834
21
8.8635499
0
LINE
8
DEFAULT_255_2_778
10
11.9059834
20
8.8635499
11
10.7153834
21
10.4510499
0
LINE
8
DEFAULT_255_2_778
10
10.7153834
20
10.4510499
11
13.3611834
21
2.5135499
0
LINE
8
DEFAULT_255_2_778
10
18.6529
20
2.5135499
11
18.6529
21
10.4510499
0
LINE
8
DEFAULT_255_2_778
10
23.9444834
20
2.5135499
11
26.5902834
21
10.4510499
0
LINE
8
DEFAULT_255_2_778
10
26.5902834
20
10.4510499
11
26.5902834
21
8.3343499
0
LINE
8
DEFAULT_255_2_778
10
26.5902834
20
8.3343499
11
25.3996834
21
8.8635499
0
LINE
8
DEFAULT_255_2_778
10
25.3996834
20
8.8635499
11
26.5902834
21
10.4510499
0
LINE
8
DEFAULT_255_2_778
10
26.5904
20
-2.7781501
11
26.5904
21
5.1593499
0
LINE
8
DEFAULT_255_2_778
10
25.9289417
20
5.1593
11
27.2518417
21
5.1593
0
LINE
8
DEFAULT_255_2_778
10
23.9445
20
2.5135333
11
23.9445
21
-2.7781667
0
LINE
8
DEFAULT_255_2_778
10
21.2987
20
2.5135333
11
21.2987
21
-2.7781667
0
LINE
8
DEFAULT_255_2_778
10
26.5904
20
10.4509333
11
26.5904
21
15.7426333
0
LINE
8
DEFAULT_255_2_778
10
21.2987
20
10.4509333
11
21.2987
21
15.7426333
0
LINE
8
DEFAULT_255_2_778
10
8.0695417
20
5.1593
11
6.7466417
21
5.1593
0
LINE
8
DEFAULT_255_2_778
10
5.4237417
20
3.8364166
11
6.7466417
21
5.1593166
0
LINE
8
DEFAULT_255_2_778
10
6.7466417
20
5.1593166
11
5.4237417
21
6.4822166
0
LINE
8
DEFAULT_255_2_778
10
5.4237417
20
6.4822166
11
5.4237417
21
3.8364166
0
LINE
8
DEFAULT_255_2_778
10
5.4236834
20
5.1593
11
2.7778834
21
5.1593
0
LINE
8
DEFAULT_255_2_778
10
10.7154
20
2.5135166
11
10.7154
21
5.1593166
0
LINE
8
DEFAULT_255_2_778
10
10.0539417
20
5.1593
11
11.3768417
21
5.1593
0
LINE
8
DEFAULT_255_2_778
10
16.007
20
2.5135499
11
16.007
21
10.4510499
0
LINE
8
DEFAULT_255_2_778
10
15.3455417
20
4.4978875
11
16.6684417
21
4.4978875
0
LINE
8
DEFAULT_255_2_778
10
16.6684417
20
4.4978875
11
16.0070417
21
2.5134875
0
LINE
8
DEFAULT_255_2_778
10
16.0070417
20
2.5134875
11
15.3455417
21
4.4978875
0
LINE
8
DEFAULT_255_2_778
10
21.2987
20
2.5135499
11
21.2987
21
10.4510499
0
LINE
8
DEFAULT_255_2_778
10
20.6372417
20
4.4978875
11
21.9601417
21
4.4978875
0
LINE
8
DEFAULT_255_2_778
10
21.9601417
20
4.4978875
11
21.2987417
21
2.5134875
0
LINE
8
DEFAULT_255_2_778
10
21.2987417
20
2.5134875
11
20.6372417
21
4.4978875
0
LINE
8
DEFAULT_255_2_778
10
29.2361834
20
5.6885
11
31.8819834
21
5.6885
0
LINE
8
DEFAULT_255_2_778
10
31.8819834
20
5.6885
11
31.8819834
21
2.5135
0
LINE
8
DEFAULT_255_2_778
10
31.8819834
20
2.5135
11
29.2361834
21
2.5135
0
LINE
8
DEFAULT_255_2_778
10
29.2361834
20
2.5135
11
29.2361834
21
5.6885
0
LINE
8
DEFAULT_255_2_778
10
31.8820417
20
5.6885
11
30.5591417
21
4.101
0
LINE
8
DEFAULT_255_2_778
10
30.5591417
20
4.101
11
31.8820417
21
2.5135
0
LINE
8
DEFAULT_255_2_778
10
29.2362188
20
8.546
11
29.5302188
21
10.451
0
LINE
8
DEFAULT_255_2_778
10
29.5302188
20
10.451
11
29.9712188
21
7.276
0
LINE
8
DEFAULT_255_2_778
10
29.9712188
20
7.276
11
30.4123188
21
10.451
0
LINE
8
DEFAULT_255_2_778
10
30.4123188
20
10.451
11
30.8533188
21
7.276
0
LINE
8
DEFAULT_255_2_778
10
30.8533188
20
7.276
11
31.2944188
21
10.451
0
LINE
8
DEFAULT_255_2_778
10
31.2944188
20
10.451
11
31.7355188
21
7.276
0
LINE
8
DEFAULT_255_2_778
10
31.7355188
20
7.276
11
31.8826188
21
8.546
0
LINE
8
DEFAULT_255_1_234
10
21.5653137
20
-0.6674567
11
21.5653137
21
-1.8425
0
LINE
8
DEFAULT_255_1_234
10
21.5653137
20
-1.8425
11
21.4159234
21
-1.8425
0
LINE
8
DEFAULT_255_1_234
10
21.4159234
20
-1.8425
11
21.4159234
21
-0.8521867
0
LINE
8
DEFAULT_255_1_234
10
21.4159234
20
-0.8521867
11
21.1163396
21
-0.9622215
0
LINE
8
DEFAULT_255_1_234
10
21.1163396
20
-0.9622215
11
21.1163396
21
-0.8272883
0
LINE
8
DEFAULT_255_1_234
10
21.1163396
20
-0.8272883
11
21.5420217
21
-0.6674567
0
LINE
8
DEFAULT_255_1_234
10
21.5420217
20
-0.6674567
11
21.5653137
21
-0.6674567
0
LINE
8
DEFAULT_255_1_234
10
22.2166877
20
-1.3067831
11
22.2166877
21
-1.1855038
0
LINE
8
DEFAULT_255_1_234
10
22.2166877
20
-1.1855038
11
22.3283289
21
-1.1855038
0
LINE
8
DEFAULT_255_1_234
10
22.1379767
20
-0.9798913
11
21.9893895
21
-0.9798913
0
LINE
8
DEFAULT_255_1_234
10
21.9789482
20
-1.5340812
11
22.1283386
21
-1.5340812
0
LINE
8
DEFAULT_255_1_234
10
22.3283289
20
-1.3067831
11
22.2166877
21
-1.3067831
0
ARC
8
DEFAULT_255_1_234
10
22.3254155
20
-0.8462287
40
0.3392876
50
270.4919872
51
281.8951556
0
ARC
8
DEFAULT_255_1_234
10
22.3495417
20
-0.9564298
40
0.2264817
50
281.6691735
51
301.2943132
0
ARC
8
DEFAULT_255_1_234
10
22.3665627
20
-0.9875696
40
0.1910381
50
301.7833094
51
311.7545298
0
ARC
8
DEFAULT_255_1_234
10
22.3757203
20
-0.9977252
40
0.1773635
50
311.7323931
51
354.2802411
0
ARC
8
DEFAULT_255_1_234
10
22.3030828
20
-0.9852278
40
0.2509385
50
353.0937916
51
0.1181479
0
ARC
8
DEFAULT_255_1_234
10
22.2569613
20
-0.9804614
40
0.2970898
50
359.1805295
51
15.0453146
0
ARC
8
DEFAULT_255_1_234
10
22.391545
20
-0.9412008
40
0.1569564
50
13.9577229
51
77.6713066
0
ARC
8
DEFAULT_255_1_234
10
22.3528979
20
-1.0797051
40
0.3006298
50
76.1116566
51
90.7026153
0
ARC
8
DEFAULT_255_1_234
10
22.3469817
20
-1.0523455
40
0.2732568
50
89.5324876
51
103.531937
0
ARC
8
DEFAULT_255_1_234
10
22.3269261
20
-0.9724116
40
0.1908508
50
103.2931773
51
133.5619022
0
ARC
8
DEFAULT_255_1_234
10
22.322475
20
-0.9664625
40
0.1834746
50
133.8349307
51
173.5344437
0
ARC
8
DEFAULT_255_1_234
10
22.3947793
20
-0.9792787
40
0.2568033
50
172.5096846
51
180.1366907
0
ARC
8
DEFAULT_255_1_234
10
22.2996687
20
-0.9758378
40
0.3103056
50
155.3484492
51
180.7484736
0
ARC
8
DEFAULT_255_1_234
10
22.2947776
20
-0.9787154
40
0.3070957
50
131.5744599
51
154.4798489
0
ARC
8
DEFAULT_255_1_234
10
22.3260923
20
-1.010369
40
0.3515643
50
96.9875458
51
131.9690667
0
ARC
8
DEFAULT_255_1_234
10
22.3480403
20
-1.1349364
40
0.4779224
50
89.8596053
51
97.7825159
0
ARC
8
DEFAULT_255_1_234
10
22.3528466
20
-1.1611384
40
0.5041361
50
78.3655447
51
90.4131539
0
ARC
8
DEFAULT_255_1_234
10
22.3886384
20
-0.9952113
40
0.3344039
50
56.6229102
51
78.638727
0
ARC
8
DEFAULT_255_1_234
10
22.4101328
20
-0.9576195
40
0.2912001
50
47.0253525
51
56.0854072
0
ARC
8
DEFAULT_255_1_234
10
22.4121108
20
-0.9536777
40
0.2869704
50
10.9208013
51
46.7778124
0
ARC
8
DEFAULT_255_1_234
10
22.2757174
20
-0.9852143
40
0.426899
50
359.6364486
51
11.6087304
0
ARC
8
DEFAULT_255_1_234
10
22.4592018
20
-0.9867248
40
0.243409
50
332.3549906
51
359.7179418
0
ARC
8
DEFAULT_255_1_234
10
22.394162
20
-0.9558858
40
0.3153459
50
325.2333722
51
332.8745602
0
ARC
8
DEFAULT_255_1_234
10
22.4094244
20
-0.9665172
40
0.2967456
50
292.9802137
51
325.2392345
0
ARC
8
DEFAULT_255_1_234
10
22.3819617
20
-0.9131137
40
0.3566604
50
292.5402179
51
293.6924929
0
ARC
8
DEFAULT_255_1_234
10
22.4212213
20
-1.5585909
40
0.3307468
50
57.6435486
51
72.8625112
0
ARC
8
DEFAULT_255_1_234
10
22.4566713
20
-1.5011451
40
0.2632492
50
36.7248896
51
57.4697979
0
ARC
8
DEFAULT_255_1_234
10
22.4555346
20
-1.499878
40
0.2634081
50
8.0545065
51
36.356114
0
ARC
8
DEFAULT_255_1_234
10
22.3692531
20
-1.5153826
40
0.3510261
50
359.8320645
51
8.5869982
0
ARC
8
DEFAULT_255_1_234
10
22.3317307
20
-1.5201899
40
0.3885653
50
343.9829931
51
0.5571613
0
ARC
8
DEFAULT_255_1_234
10
22.4203504
20
-1.5444562
40
0.2966924
50
311.6359546
51
343.7651759
0
ARC
8
DEFAULT_255_1_234
10
22.3825074
20
-1.5017898
40
0.3537231
50
279.7829875
51
311.6255694
0
ARC
8
DEFAULT_255_1_234
10
22.352385
20
-1.358072
40
0.5004971
50
269.7286406
51
280.3856417
0
ARC
8
DEFAULT_255_1_234
10
22.3461922
20
-1.3622004
40
0.4963778
50
256.6828919
51
270.4412052
0
ARC
8
DEFAULT_255_1_234
10
22.3123218
20
-1.5006606
40
0.3538406
50
229.4223008
51
256.8556159
0
ARC
8
DEFAULT_255_1_234
10
22.2708611
20
-1.5473264
40
0.2914296
50
181.818294
51
229.6455059
0
ARC
8
DEFAULT_255_1_234
10
22.3748567
20
-1.5342504
40
0.3959084
50
179.9755256
51
183.2323064
0
ARC
8
DEFAULT_255_1_234
10
22.3576313
20
-1.5362963
40
0.2293034
50
179.4465117
51
196.2869258
0
ARC
8
DEFAULT_255_1_234
10
22.3088721
20
-1.5496349
40
0.1787621
50
196.5661473
51
227.705904
0
ARC
8
DEFAULT_255_1_234
10
22.3252816
20
-1.5312845
40
0.2033784
50
227.7652068
51
257.8762805
0
ARC
8
DEFAULT_255_1_234
10
22.3477786
20
-1.4369844
40
0.3003081
50
257.4584385
51
270.426602
0
ARC
8
DEFAULT_255_1_234
10
22.3523352
20
-1.4080004
40
0.329292
50
269.5962073
51
280.8789248
0
ARC
8
DEFAULT_255_1_234
10
22.3752881
20
-1.5226315
40
0.2123908
50
280.6346389
51
299.8595945
0
ARC
8
DEFAULT_255_1_234
10
22.3943788
20
-1.5588788
40
0.171457
50
300.3576302
51
314.5517981
0
ARC
8
DEFAULT_255_1_234
10
22.3860848
20
-1.5528081
40
0.1816095
50
315.0728369
51
345.0431014
0
ARC
8
DEFAULT_255_1_234
10
22.2937662
20
-1.5259159
40
0.2777492
50
344.5986631
51
357.9269593
0
ARC
8
DEFAULT_255_1_234
10
22.2041989
20
-1.5197724
40
0.3674917
50
357.4748886
51
0.0231117
0
ARC
8
DEFAULT_255_1_234
10
22.3065098
20
-1.5173321
40
0.2651907
50
359.5047933
51
13.4239635
0
ARC
8
DEFAULT_255_1_234
10
22.3931741
20
-1.4951522
40
0.1757509
50
12.9498199
51
48.7551375
0
ARC
8
DEFAULT_255_1_234
10
22.3749475
20
-1.52006
40
0.2065134
50
49.5088623
51
72.1836453
0
ARC
8
DEFAULT_255_1_234
10
22.3391628
20
-1.6262709
40
0.3185836
50
71.9010081
51
84.3554254
0
ARC
8
DEFAULT_255_1_234
10
22.323026
20
-1.7623674
40
0.4556151
50
84.0193428
51
89.333121
0
LINE
8
DEFAULT_255_1_234
10
23.1114233
20
-1.2867037
11
22.9925536
21
-1.2561831
0
LINE
8
DEFAULT_255_1_234
10
22.9925536
20
-1.2561831
11
23.0519885
21
-0.6730789
0
LINE
8
DEFAULT_255_1_234
10
23.0519885
20
-0.6730789
11
23.6511562
21
-0.6730789
0
LINE
8
DEFAULT_255_1_234
10
23.6511562
20
-0.6730789
11
23.6511562
21
-0.8104216
0
LINE
8
DEFAULT_255_1_234
10
23.6511562
20
-0.8104216
11
23.1780868
21
-0.8104216
0
LINE
8
DEFAULT_255_1_234
10
23.1780868
20
-0.8104216
11
23.1427471
21
-1.1292816
0
LINE
8
DEFAULT_255_1_234
10
22.9507886
20
-1.5348844
11
23.091344
21
-1.5348844
0
LINE
8
DEFAULT_255_1_234
10
23.1507789
20
-1.2545768
11
23.1114233
21
-1.2867037
0
ARC
8
DEFAULT_255_1_234
10
23.3282255
20
-1.447277
40
0.3681349
50
93.7182161
51
120.2538958
0
ARC
8
DEFAULT_255_1_234
10
23.3376518
20
-1.5280606
40
0.449379
50
89.9660152
51
94.2496022
0
ARC
8
DEFAULT_255_1_234
10
23.3417252
20
-1.4691451
40
0.390482
50
73.8043271
51
90.5585896
0
ARC
8
DEFAULT_255_1_234
10
23.3652149
20
-1.3833398
40
0.3015334
50
41.3071453
51
73.5430202
0
ARC
8
DEFAULT_255_1_234
10
23.3235976
20
-1.4191676
40
0.3564457
50
13.5075983
51
41.2174222
0
ARC
8
DEFAULT_255_1_234
10
23.159418
20
-1.4621514
40
0.5261351
50
1.1331335
51
13.8829381
0
ARC
8
DEFAULT_255_1_234
10
23.0182549
20
-1.4697335
40
0.6674378
50
359.9919444
51
1.544251
0
ARC
8
DEFAULT_255_1_234
10
23.1459375
20
-1.473872
40
0.5397702
50
347.8572367
51
0.4293338
0
ARC
8
DEFAULT_255_1_234
10
23.3209693
20
-1.5135264
40
0.3603188
50
323.673004
51
348.1672506
0
ARC
8
DEFAULT_255_1_234
10
23.3504201
20
-1.5314832
40
0.3259678
50
316.8171152
51
323.1492751
0
ARC
8
DEFAULT_255_1_234
10
23.356539
20
-1.535154
40
0.3189975
50
281.8396411
51
316.5457803
0
ARC
8
DEFAULT_255_1_234
10
23.3189654
20
-1.3796238
40
0.4789527
50
269.5770101
51
282.4214771
0
ARC
8
DEFAULT_255_1_234
10
23.3118465
20
-1.4009875
40
0.45759
50
256.2427136
51
270.4486331
0
ARC
8
DEFAULT_255_1_234
10
23.2819368
20
-1.5209771
40
0.3339303
50
228.9023911
51
256.3314342
0
ARC
8
DEFAULT_255_1_234
10
23.27456
20
-1.5326254
40
0.32031
50
193.753695
51
228.5271154
0
ARC
8
DEFAULT_255_1_234
10
23.3983554
20
-1.49632
40
0.4492253
50
184.924711
51
194.497588
0
ARC
8
DEFAULT_255_1_234
10
23.4176121
20
-1.4927409
40
0.3289787
50
187.3600538
51
198.6732863
0
ARC
8
DEFAULT_255_1_234
10
23.3126415
20
-1.5291326
40
0.217884
50
198.4451669
51
217.794479
0
ARC
8
DEFAULT_255_1_234
10
23.283059
20
-1.5500915
40
0.1816698
50
218.2887171
51
228.5612368
0
ARC
8
DEFAULT_255_1_234
10
23.2928377
20
-1.5369037
40
0.1980329
50
228.9654866
51
258.1234728
0
ARC
8
DEFAULT_255_1_234
10
23.3134087
20
-1.4488167
40
0.2884748
50
257.7258293
51
270.401361
0
ARC
8
DEFAULT_255_1_234
10
23.3178974
20
-1.4933179
40
0.2439788
50
269.4204404
51
286.4209037
0
ARC
8
DEFAULT_255_1_234
10
23.3327461
20
-1.5472343
40
0.1880666
50
286.7251356
51
320.600362
0
ARC
8
DEFAULT_255_1_234
10
23.2944286
20
-1.5161405
40
0.2374121
50
320.6712579
51
344.5441685
0
ARC
8
DEFAULT_255_1_234
10
23.1787612
20
-1.4821955
40
0.3579479
50
344.2412205
51
356.7357071
0
ARC
8
DEFAULT_255_1_234
10
23.0538761
20
-1.4718556
40
0.4832297
50
356.3548756
51
0.0500261
0
ARC
8
DEFAULT_255_1_234
10
23.187527
20
-1.468735
40
0.3495889
50
359.5576869
51
12.953486
0
ARC
8
DEFAULT_255_1_234
10
23.2930167
20
-1.4431566
40
0.2410532
50
12.6490276
51
41.6081334
0
ARC
8
DEFAULT_255_1_234
10
23.3160538
20
-1.4235679
40
0.2108218
50
41.7850273
51
85.9892764
0
ARC
8
DEFAULT_255_1_234
10
23.3037275
20
-1.5048538
40
0.2928454
50
84.6957577
51
90.0676183
0
ARC
8
DEFAULT_255_1_234
10
23.3013759
20
-1.5717284
40
0.3597255
50
89.6804936
51
99.1614436
0
ARC
8
DEFAULT_255_1_234
10
23.280839
20
-1.4489869
40
0.235281
50
98.9830931
51
113.8908934
0
ARC
8
DEFAULT_255_1_234
10
23.25788
20
-1.3948413
40
0.176479
50
114.1950727
51
127.3641004
0
LINE
8
DEFAULT_255_1_234
10
24.6249119
20
13.5753792
11
24.6249119
21
13.4541
0
LINE
8
DEFAULT_255_1_234
10
24.6249119
20
13.4541
11
23.858684
21
13.4541
0
LINE
8
DEFAULT_255_1_234
10
23.858684
20
13.4541
11
23.858684
21
13.5609221
0
LINE
8
DEFAULT_255_1_234
10
23.858684
20
13.5609221
11
24.2634836
21
14.0106995
0
LINE
8
DEFAULT_255_1_234
10
23.9847823
20
14.2789595
11
23.8361952
21
14.2789595
0
LINE
8
DEFAULT_255_1_234
10
24.3510296
20
13.9151218
11
24.0377918
21
13.5753792
0
LINE
8
DEFAULT_255_1_234
10
24.0377918
20
13.5753792
11
24.6249119
21
13.5753792
0
ARC
8
DEFAULT_255_1_234
10
22.914467
20
15.2036527
40
1.8008286
50
318.5132453
51
320.7828378
0
ARC
8
DEFAULT_255_1_234
10
23.4431644
20
14.7733426
40
1.1191493
50
320.7372736
51
323.9737074
0
ARC
8
DEFAULT_255_1_234
10
23.8351501
20
14.4893361
40
0.6350923
50
323.8961724
51
328.6421089
0
ARC
8
DEFAULT_255_1_234
10
24.0398096
20
14.3631031
40
0.3946393
50
328.8299013
51
331.789948
0
ARC
8
DEFAULT_255_1_234
10
24.1395274
20
14.3116509
40
0.2824501
50
331.4255242
51
352.9364833
0
ARC
8
DEFAULT_255_1_234
10
24.1531775
20
14.3085976
40
0.2685315
50
353.2248685
51
0.0169286
0
ARC
8
DEFAULT_255_1_234
10
24.1741652
20
14.310895
40
0.2475536
50
359.4866256
51
15.9339782
0
ARC
8
DEFAULT_255_1_234
10
24.2248637
20
14.3245286
40
0.1950618
50
16.1714718
51
43.5284424
0
ARC
8
DEFAULT_255_1_234
10
24.2325946
20
14.3322573
40
0.184134
50
43.4415429
51
83.1661404
0
ARC
8
DEFAULT_255_1_234
10
24.2191864
20
14.2585771
40
0.258926
50
82.160215
51
90.1505798
0
ARC
8
DEFAULT_255_1_234
10
24.2160291
20
14.2048865
40
0.3126255
50
89.5460705
51
102.5418777
0
ARC
8
DEFAULT_255_1_234
10
24.1917377
20
14.3079665
40
0.2067346
50
102.1739365
51
129.2061916
0
ARC
8
DEFAULT_255_1_234
10
24.1838449
20
14.3204094
40
0.1921118
50
129.7279328
51
135.7542026
0
ARC
8
DEFAULT_255_1_234
10
24.1959977
20
14.3107045
40
0.2075944
50
136.175737
51
166.3674722
0
ARC
8
DEFAULT_255_1_234
10
24.2966896
20
14.2837182
40
0.3118201
50
165.9092917
51
178.8683903
0
ARC
8
DEFAULT_255_1_234
10
24.3831757
20
14.2790179
40
0.3983935
50
178.438168
51
180.0083905
0
ARC
8
DEFAULT_255_1_234
10
24.2430359
20
14.2829231
40
0.4068601
50
163.2878735
51
180.5581814
0
ARC
8
DEFAULT_255_1_234
10
24.1628621
20
14.304984
40
0.3237344
50
133.454115
51
162.9470031
0
ARC
8
DEFAULT_255_1_234
10
24.1807162
20
14.286
40
0.349795
50
100.7869394
51
133.4384016
0
ARC
8
DEFAULT_255_1_234
10
24.2154934
20
14.1311319
40
0.5084616
50
89.6605301
51
101.3704185
0
ARC
8
DEFAULT_255_1_234
10
24.2221273
20
14.1372496
40
0.502348
50
78.2171172
51
90.4130393
0
ARC
8
DEFAULT_255_1_234
10
24.2576351
20
14.2996637
40
0.3361092
50
55.9268222
51
78.4888551
0
ARC
8
DEFAULT_255_1_234
10
24.2772791
20
14.3335324
40
0.2970617
50
47.9292255
51
55.4054003
0
ARC
8
DEFAULT_255_1_234
10
24.2874352
20
14.3438502
40
0.2825983
50
4.3347696
51
48.0560701
0
ARC
8
DEFAULT_255_1_234
10
24.1778745
20
14.3268601
40
0.393225
50
359.925209
51
5.5967654
0
ARC
8
DEFAULT_255_1_234
10
24.2207637
20
14.3324816
40
0.3503892
50
337.8914096
51
358.9967724
0
ARC
8
DEFAULT_255_1_234
10
23.9494049
20
14.4371706
40
0.6412172
50
326.9135351
51
338.3505194
0
ARC
8
DEFAULT_255_1_234
10
23.5508353
20
14.6926284
40
1.1146189
50
319.6472867
51
327.095818
0
ARC
8
DEFAULT_255_1_234
10
23.1675356
20
15.0088
40
1.6114559
50
317.2586784
51
319.9046139
0
LINE
8
DEFAULT_255_1_234
10
25.4096127
20
14.6235211
11
25.4096127
21
13.846852
0
LINE
8
DEFAULT_255_1_234
10
25.4096127
20
13.846852
11
25.5718538
21
13.846852
0
LINE
8
DEFAULT_255_1_234
10
25.5718538
20
13.846852
11
25.5718538
21
13.7255728
0
LINE
8
DEFAULT_255_1_234
10
25.5718538
20
13.7255728
11
25.4096127
21
13.7255728
0
LINE
8
DEFAULT_255_1_234
10
25.4096127
20
13.7255728
11
25.4096127
21
13.4541
0
LINE
8
DEFAULT_255_1_234
10
25.4096127
20
13.4541
11
25.2602224
21
13.4541
0
LINE
8
DEFAULT_255_1_234
10
25.2602224
20
13.4541
11
25.2602224
21
13.7255728
0
LINE
8
DEFAULT_255_1_234
10
25.2602224
20
13.7255728
11
24.7277181
21
13.7255728
0
LINE
8
DEFAULT_255_1_234
10
24.7277181
20
13.7255728
11
24.7277181
21
13.8131187
0
LINE
8
DEFAULT_255_1_234
10
24.7277181
20
13.8131187
11
25.2513875
21
14.6235211
0
LINE
8
DEFAULT_255_1_234
10
25.2513875
20
14.6235211
11
25.4096127
21
14.6235211
0
LINE
8
DEFAULT_255_1_234
10
25.2425525
20
14.3881912
11
24.8963846
21
13.846852
0
LINE
8
DEFAULT_255_1_234
10
24.8963846
20
13.846852
11
25.2602224
21
13.846852
0
LINE
8
DEFAULT_255_1_234
10
25.2602224
20
13.846852
11
25.2602224
21
14.4203181
0
LINE
8
DEFAULT_255_1_234
10
25.2602224
20
14.4203181
11
25.2425525
21
14.3881912
0
LINE
8
DEFAULT_255_1_234
10
4.6534137
20
7.2705433
11
4.6534137
21
6.0955
0
LINE
8
DEFAULT_255_1_234
10
4.6534137
20
6.0955
11
4.5040234
21
6.0955
0
LINE
8
DEFAULT_255_1_234
10
4.5040234
20
6.0955
11
4.5040234
21
7.0858133
0
LINE
8
DEFAULT_255_1_234
10
4.5040234
20
7.0858133
11
4.2044396
21
6.9757785
0
LINE
8
DEFAULT_255_1_234
10
4.2044396
20
6.9757785
11
4.2044396
21
7.1107117
0
LINE
8
DEFAULT_255_1_234
10
4.2044396
20
7.1107117
11
4.6301217
21
7.2705433
0
LINE
8
DEFAULT_255_1_234
10
4.6301217
20
7.2705433
11
4.6534137
21
7.2705433
0
LINE
8
DEFAULT_255_1_234
10
5.7160127
20
7.2649211
11
5.7160127
21
6.488252
0
LINE
8
DEFAULT_255_1_234
10
5.7160127
20
6.488252
11
5.8782538
21
6.488252
0
LINE
8
DEFAULT_255_1_234
10
5.8782538
20
6.488252
11
5.8782538
21
6.3669728
0
LINE
8
DEFAULT_255_1_234
10
5.8782538
20
6.3669728
11
5.7160127
21
6.3669728
0
LINE
8
DEFAULT_255_1_234
10
5.7160127
20
6.3669728
11
5.7160127
21
6.0955
0
LINE
8
DEFAULT_255_1_234
10
5.7160127
20
6.0955
11
5.5666224
21
6.0955
0
LINE
8
DEFAULT_255_1_234
10
5.5666224
20
6.0955
11
5.5666224
21
6.3669728
0
LINE
8
DEFAULT_255_1_234
10
5.5666224
20
6.3669728
11
5.0341181
21
6.3669728
0
LINE
8
DEFAULT_255_1_234
10
5.0341181
20
6.3669728
11
5.0341181
21
6.4545187
0
LINE
8
DEFAULT_255_1_234
10
5.0341181
20
6.4545187
11
5.5577875
21
7.2649211
0
LINE
8
DEFAULT_255_1_234
10
5.5577875
20
7.2649211
11
5.7160127
21
7.2649211
0
LINE
8
DEFAULT_255_1_234
10
5.5489525
20
7.0295912
11
5.2027846
21
6.488252
0
LINE
8
DEFAULT_255_1_234
10
5.2027846
20
6.488252
11
5.5666224
21
6.488252
0
LINE
8
DEFAULT_255_1_234
10
5.5666224
20
6.488252
11
5.5666224
21
7.0617181
0
LINE
8
DEFAULT_255_1_234
10
5.5666224
20
7.0617181
11
5.5489525
21
7.0295912
0
ENDSEC
0
EOF