0
SECTION
2
HEADER
9
$MEASUREMENT
70
1
0
ENDSEC
0
SECTION
2
TABLES
0
TABLE
2
LTYPE
0
LTYPE
72
65
70
64
2
CONTINUOUS
3
______
73
0
40
0
0
ENDTAB
0
TABLE
2
LAYER
0
LAYER
2
DEFAULT_255_2_778
70
0
62
255
6
CONTINUOUS
0
LAYER
2
DEFAULT_255_1_388
70
0
62
255
6
CONTINUOUS
0
ENDTAB
0
ENDSEC
0
SECTION
2
ENTITIES
0
LINE
8
DEFAULT_255_2_778
10
10.053867
20
10.4510499
11
31.220567
21
10.4510499
0
LINE
8
DEFAULT_255_2_778
10
31.220567
20
10.4510499
11
31.220567
21
2.5135499
0
LINE
8
DEFAULT_255_2_778
10
31.220567
20
2.5135499
11
10.053867
21
2.5135499
0
LINE
8
DEFAULT_255_2_778
10
10.053867
20
2.5135499
11
10.053867
21
10.4510499
0
LINE
8
DEFAULT_255_2_778
10
12.6997834
20
10.4510499
11
12.6997834
21
8.3343499
0
LINE
8
DEFAULT_255_2_778
10
12.6997834
20
8.3343499
11
13.8903834
21
8.8635499
0
LINE
8
DEFAULT_255_2_778
10
13.8903834
20
8.8635499
11
12.6997834
21
10.4510499
0
LINE
8
DEFAULT_255_2_778
10
12.6997834
20
10.4510499
11
15.3455834
21
2.5135499
0
LINE
8
DEFAULT_255_2_778
10
20.6372
20
2.5135499
11
20.6372
21
10.4510499
0
LINE
8
DEFAULT_255_2_778
10
28.5747
20
-2.7781501
11
28.5747
21
5.1593499
0
LINE
8
DEFAULT_255_2_778
10
27.9132417
20
5.1593
11
29.2361417
21
5.1593
0
LINE
8
DEFAULT_255_2_778
10
25.9289
20
2.5135333
11
25.9289
21
-2.7781667
0
LINE
8
DEFAULT_255_2_778
10
23.2831
20
2.5135333
11
23.2831
21
-2.7781667
0
LINE
8
DEFAULT_255_2_778
10
28.5747
20
10.4509333
11
28.5747
21
15.7426333
0
LINE
8
DEFAULT_255_2_778
10
23.2831
20
10.4509333
11
23.2831
21
15.7426333
0
LINE
8
DEFAULT_255_2_778
10
25.9288834
20
2.5135499
11
28.5746834
21
10.4510499
0
LINE
8
DEFAULT_255_2_778
10
28.5746834
20
10.4510499
11
28.5746834
21
8.3343499
0
LINE
8
DEFAULT_255_2_778
10
28.5746834
20
8.3343499
11
27.3840834
21
8.8635499
0
LINE
8
DEFAULT_255_2_778
10
27.3840834
20
8.8635499
11
28.5746834
21
10.4510499
0
LINE
8
DEFAULT_255_2_778
10
12.6997
20
2.5135166
11
12.6997
21
5.1593166
0
LINE
8
DEFAULT_255_2_778
10
12.0382417
20
5.1593
11
13.3611417
21
5.1593
0
LINE
8
DEFAULT_255_2_778
10
23.2831
20
2.5135499
11
23.2831
21
10.4510499
0
LINE
8
DEFAULT_255_2_778
10
22.6216417
20
4.4978875
11
23.9445417
21
4.4978875
0
LINE
8
DEFAULT_255_2_778
10
23.9445417
20
4.4978875
11
23.2831417
21
2.5134875
0
LINE
8
DEFAULT_255_2_778
10
23.2831417
20
2.5134875
11
22.6216417
21
4.4978875
0
LINE
8
DEFAULT_255_2_778
10
7.4080834
20
5.6885
11
10.0538834
21
5.6885
0
LINE
8
DEFAULT_255_2_778
10
10.0538834
20
5.6885
11
10.0538834
21
2.5135
0
LINE
8
DEFAULT_255_2_778
10
10.0538834
20
2.5135
11
7.4080834
21
2.5135
0
LINE
8
DEFAULT_255_2_778
10
7.4080834
20
2.5135
11
7.4080834
21
5.6885
0
LINE
8
DEFAULT_255_2_778
10
7.4080417
20
5.6885
11
8.7309417
21
4.101
0
LINE
8
DEFAULT_255_2_778
10
8.7309417
20
4.101
11
7.4080417
21
2.5135
0
LINE
8
DEFAULT_255_2_778
10
31.2205834
20
5.6885
11
33.8663834
21
5.6885
0
LINE
8
DEFAULT_255_2_778
10
33.8663834
20
5.6885
11
33.8663834
21
2.5135
0
LINE
8
DEFAULT_255_2_778
10
33.8663834
20
2.5135
11
31.2205834
21
2.5135
0
LINE
8
DEFAULT_255_2_778
10
31.2205834
20
2.5135
11
31.2205834
21
5.6885
0
LINE
8
DEFAULT_255_2_778
10
33.8663417
20
5.6885
11
32.5434417
21
4.101
0
LINE
8
DEFAULT_255_2_778
10
32.5434417
20
4.101
11
33.8663417
21
2.5135
0
LINE
8
DEFAULT_255_2_778
10
17.9914
20
2.5135499
11
17.9914
21
10.4510499
0
LINE
8
DEFAULT_255_2_778
10
17.3299417
20
4.4978875
11
18.6528417
21
4.4978875
0
LINE
8
DEFAULT_255_2_778
10
18.6528417
20
4.4978875
11
17.9914417
21
2.5134875
0
LINE
8
DEFAULT_255_2_778
10
17.9914417
20
2.5134875
11
17.3299417
21
4.4978875
0
LINE
8
DEFAULT_255_2_778
10
7.4080688
20
4.6302
11
6.0189688
21
4.6302
0
LINE
8
DEFAULT_255_2_778
10
7.4080688
20
3.5718
11
6.0189688
21
3.5718
0
ARC
8
DEFAULT_255_2_778
10
4.6797152
20
4.1035608
40
1.2404357
50
179.9956538
51
180.117393
0
ARC
8
DEFAULT_255_2_778
10
4.7595976
20
4.103623
40
1.3203182
50
135.0005908
51
179.9986157
0
ARC
8
DEFAULT_255_2_778
10
4.7595784
20
4.1036037
40
1.3203181
50
90.0013843
51
134.9994092
0
ARC
8
DEFAULT_255_2_778
10
4.7596406
20
4.1834862
40
1.2404357
50
89.882607
51
90.0043462
0
ARC
8
DEFAULT_255_2_778
10
4.764288
20
4.1072369
40
1.316684
50
57.3211861
51
90.0916398
0
ARC
8
DEFAULT_255_2_778
10
4.7623763
20
4.1011869
40
1.3228095
50
6.5640329
51
57.3929792
0
ARC
8
DEFAULT_255_2_778
10
4.748096
20
4.1012855
40
1.336986
50
359.9885895
51
6.4898767
0
ARC
8
DEFAULT_255_2_778
10
4.7683998
20
4.0989133
40
1.316684
50
327.3211861
51
0.0916398
0
ARC
8
DEFAULT_255_2_778
10
4.7623497
20
4.100825
40
1.3228095
50
276.5640329
51
327.3929792
0
ARC
8
DEFAULT_255_2_778
10
4.7624484
20
4.1151053
40
1.336986
50
269.9885895
51
276.4898767
0
ARC
8
DEFAULT_255_2_778
10
4.7596386
20
4.0204672
40
1.2423506
50
269.995663
51
270.117302
0
ARC
8
DEFAULT_255_2_778
10
4.759404
20
4.0980139
40
1.3198973
50
224.9930252
51
270.0061026
0
ARC
8
DEFAULT_255_2_778
10
4.7595976
20
4.0984156
40
1.3203181
50
180.0013843
51
224.9994092
0
ARC
8
DEFAULT_255_2_778
10
4.6797152
20
4.0984777
40
1.2404357
50
179.882607
51
180.0043462
0
ARC
8
DEFAULT_255_2_778
10
4.7607533
20
4.1024481
40
0.6599728
50
89.8759594
51
180.1240406
0
ARC
8
DEFAULT_255_2_778
10
4.7636894
20
4.1024268
40
0.6599942
50
359.8778051
51
90.1308527
0
ARC
8
DEFAULT_255_2_778
10
4.7636682
20
4.0995332
40
0.6600156
50
269.8709926
51
0.1290074
0
ARC
8
DEFAULT_255_2_778
10
4.7607746
20
4.099512
40
0.6599942
50
179.8691503
51
270.1221875
0
LINE
8
DEFAULT_255_2_778
10
3.4392821
20
4.1010193
11
3.4392821
21
4.1010193
0
LINE
8
DEFAULT_255_2_778
10
4.1007821
20
4.1010193
11
4.1007821
21
4.1010193
0
LINE
8
DEFAULT_255_2_778
10
31.2205188
20
8.546
11
31.5145188
21
10.451
0
LINE
8
DEFAULT_255_2_778
10
31.5145188
20
10.451
11
31.9555188
21
7.276
0
LINE
8
DEFAULT_255_2_778
10
31.9555188
20
7.276
11
32.3966188
21
10.451
0
LINE
8
DEFAULT_255_2_778
10
32.3966188
20
10.451
11
32.8376188
21
7.276
0
LINE
8
DEFAULT_255_2_778
10
32.8376188
20
7.276
11
33.2787188
21
10.451
0
LINE
8
DEFAULT_255_2_778
10
33.2787188
20
10.451
11
33.7198188
21
7.276
0
LINE
8
DEFAULT_255_2_778
10
33.7198188
20
7.276
11
33.8669188
21
8.546
0
LINE
8
DEFAULT_255_1_388
10
23.4497985
20
-0.5089852
11
23.4497985
21
-1.8309
0
LINE
8
DEFAULT_255_1_388
10
23.4497985
20
-1.8309
11
23.2817355
21
-1.8309
0
LINE
8
DEFAULT_255_1_388
10
23.2817355
20
-1.8309
11
23.2817355
21
-0.716805
0
LINE
8
DEFAULT_255_1_388
10
23.2817355
20
-0.716805
11
22.944706
21
-0.8405934
0
LINE
8
DEFAULT_255_1_388
10
22.944706
20
-0.8405934
11
22.944706
21
-0.6887945
0
LINE
8
DEFAULT_255_1_388
10
22.944706
20
-0.6887945
11
23.4235951
21
-0.5089852
0
LINE
8
DEFAULT_255_1_388
10
23.4235951
20
-0.5089852
11
23.4497985
21
-0.5089852
0
LINE
8
DEFAULT_255_1_388
10
24.1825893
20
-1.2282225
11
24.1825893
21
-1.0917843
0
LINE
8
DEFAULT_255_1_388
10
24.1825893
20
-1.0917843
11
24.3081847
21
-1.0917843
0
LINE
8
DEFAULT_255_1_388
10
24.0940399
20
-0.8604718
11
23.9268805
21
-0.8604718
0
LINE
8
DEFAULT_255_1_388
10
23.9151342
20
-1.4839312
11
24.0831972
21
-1.4839312
0
LINE
8
DEFAULT_255_1_388
10
24.3081847
20
-1.2282225
11
24.1825893
21
-1.2282225
0
ARC
8
DEFAULT_255_1_388
10
24.3049074
20
-0.7101078
40
0.3816905
50
270.491971
51
281.8953028
0
ARC
8
DEFAULT_255_1_388
10
24.3320501
20
-0.8340801
40
0.2547877
50
281.6690378
51
301.2943765
0
ARC
8
DEFAULT_255_1_388
10
24.3511952
20
-0.8691074
40
0.2149197
50
301.7834992
51
311.754567
0
ARC
8
DEFAULT_255_1_388
10
24.3614993
20
-0.880535
40
0.1995326
50
311.7325027
51
354.2803031
0
ARC
8
DEFAULT_255_1_388
10
24.2797409
20
-0.866472
40
0.2823461
50
353.0941646
51
0.1174696
0
ARC
8
DEFAULT_255_1_388
10
24.2278967
20
-0.8611126
40
0.3342238
50
359.1804452
51
15.0452323
0
ARC
8
DEFAULT_255_1_388
10
24.3793026
20
-0.8169454
40
0.1765747
50
13.957816
51
77.6713812
0
ARC
8
DEFAULT_255_1_388
10
24.3358261
20
-0.9727536
40
0.3381982
50
76.111571
51
90.7028736
0
ARC
8
DEFAULT_255_1_388
10
24.3291673
20
-0.941975
40
0.3074046
50
89.5321574
51
103.5319393
0
ARC
8
DEFAULT_255_1_388
10
24.3066057
20
-0.8520557
40
0.2147041
50
103.2930114
51
133.5619756
0
ARC
8
DEFAULT_255_1_388
10
24.3015999
20
-0.8453649
40
0.2064084
50
133.8349761
51
173.5343225
0
ARC
8
DEFAULT_255_1_388
10
24.3829656
20
-0.8597856
40
0.2889266
50
172.5097183
51
180.1360699
0
ARC
8
DEFAULT_255_1_388
10
24.275942
20
-0.855912
40
0.3490913
50
155.3483706
51
180.7484035
0
ARC
8
DEFAULT_255_1_388
10
24.2704396
20
-0.8591481
40
0.3454798
50
131.5745177
51
154.4799474
0
ARC
8
DEFAULT_255_1_388
10
24.3056678
20
-0.8947578
40
0.3955058
50
96.9874487
51
131.9690874
0
ARC
8
DEFAULT_255_1_388
10
24.3303571
20
-1.0348593
40
0.537622
50
89.8592909
51
97.7827481
0
ARC
8
DEFAULT_255_1_388
10
24.335768
20
-1.064364
40
0.5671399
50
78.3654493
51
90.4132586
0
ARC
8
DEFAULT_255_1_388
10
24.3760321
20
-0.8777082
40
0.3762034
50
56.6229818
51
78.6387103
0
ARC
8
DEFAULT_255_1_388
10
24.400215
20
-0.8354154
40
0.3275964
50
47.0254604
51
56.085558
0
ARC
8
DEFAULT_255_1_388
10
24.4024401
20
-0.8309811
40
0.3228382
50
10.9207523
51
46.777927
0
ARC
8
DEFAULT_255_1_388
10
24.2489995
20
-0.8664599
40
0.4802559
50
359.6364235
51
11.6087615
0
ARC
8
DEFAULT_255_1_388
10
24.4554161
20
-0.8681596
40
0.273833
50
332.3549969
51
359.7179765
0
ARC
8
DEFAULT_255_1_388
10
24.3822562
20
-0.8334715
40
0.3547505
50
325.2332381
51
332.8746682
0
ARC
8
DEFAULT_255_1_388
10
24.3994144
20
-0.8454237
40
0.3338396
50
292.9803892
51
325.2391113
0
ARC
8
DEFAULT_255_1_388
10
24.368334
20
-0.7849321
40
0.4016959
50
292.542178
51
293.6931461
0
ARC
8
DEFAULT_255_1_388
10
24.4126912
20
-1.5114964
40
0.372079
50
57.643292
51
72.8626085
0
ARC
8
DEFAULT_255_1_388
10
24.4525747
20
-1.4468727
40
0.2961455
50
36.7246661
51
57.4701329
0
ARC
8
DEFAULT_255_1_388
10
24.4512903
20
-1.445453
40
0.2963321
50
8.054535
51
36.3561529
0
ARC
8
DEFAULT_255_1_388
10
24.3542576
20
-1.4628927
40
0.3948682
50
359.8316595
51
8.5873361
0
ARC
8
DEFAULT_255_1_388
10
24.312005
20
-1.468303
40
0.4371398
50
343.9831631
51
0.557075
0
ARC
8
DEFAULT_255_1_388
10
24.41171
20
-1.4956037
40
0.3337749
50
311.6358204
51
343.7652116
0
ARC
8
DEFAULT_255_1_388
10
24.3691353
20
-1.4476045
40
0.3979351
50
279.7829743
51
311.625622
0
ARC
8
DEFAULT_255_1_388
10
24.3352489
20
-1.2859358
40
0.5630417
50
269.7285092
51
280.3857694
0
ARC
8
DEFAULT_255_1_388
10
24.3282802
20
-1.2905759
40
0.5584119
50
256.6827433
51
270.4412869
0
ARC
8
DEFAULT_255_1_388
10
24.2901788
20
-1.4463302
40
0.3980715
50
229.4223821
51
256.8554507
0
ARC
8
DEFAULT_255_1_388
10
24.2435342
20
-1.4988317
40
0.3278564
50
181.8183354
51
229.6455015
0
ARC
8
DEFAULT_255_1_388
10
24.3604951
20
-1.4841175
40
0.4453611
50
179.9760419
51
183.2330638
0
ARC
8
DEFAULT_255_1_388
10
24.3411503
20
-1.4864219
40
0.2579652
50
179.4467996
51
196.2871626
0
ARC
8
DEFAULT_255_1_388
10
24.2862957
20
-1.5014291
40
0.2011057
50
196.5661293
51
227.7059371
0
ARC
8
DEFAULT_255_1_388
10
24.3047564
20
-1.4807845
40
0.2287994
50
227.7653015
51
257.8763321
0
ARC
8
DEFAULT_255_1_388
10
24.3300647
20
-1.3747039
40
0.3378385
50
257.4583525
51
270.4267406
0
ARC
8
DEFAULT_255_1_388
10
24.3351897
20
-1.342077
40
0.3704652
50
269.5965319
51
280.8788143
0
ARC
8
DEFAULT_255_1_388
10
24.3610125
20
-1.4710471
40
0.2389415
50
280.6347277
51
299.8594068
0
ARC
8
DEFAULT_255_1_388
10
24.3824895
20
-1.5118264
40
0.19289
50
300.3575552
51
314.5515667
0
ARC
8
DEFAULT_255_1_388
10
24.373157
20
-1.5049975
40
0.204312
50
315.0730962
51
345.0429362
0
ARC
8
DEFAULT_255_1_388
10
24.2693078
20
-1.4747461
40
0.31246
50
344.598526
51
357.9270698
0
ARC
8
DEFAULT_255_1_388
10
24.1683383
20
-1.4678295
40
0.4136265
50
357.4755098
51
0.0224936
0
ARC
8
DEFAULT_255_1_388
10
24.283626
20
-1.4650901
40
0.2983498
50
359.5051035
51
13.4236939
0
ARC
8
DEFAULT_255_1_388
10
24.381135
20
-1.4401363
40
0.1977186
50
12.9497905
51
48.7550905
0
ARC
8
DEFAULT_255_1_388
10
24.3606272
20
-1.4681627
40
0.2323321
50
49.509109
51
72.1832965
0
ARC
8
DEFAULT_255_1_388
10
24.320374
20
-1.5876368
40
0.358397
50
71.9008458
51
84.3555134
0
ARC
8
DEFAULT_255_1_388
10
24.3022135
20
-1.7408288
40
0.512641
50
84.019632
51
89.3326067
0
LINE
8
DEFAULT_255_1_388
10
25.1891601
20
-1.2056334
11
25.0554325
21
-1.1712979
0
LINE
8
DEFAULT_255_1_388
10
25.0554325
20
-1.1712979
11
25.1222963
21
-0.5153102
0
LINE
8
DEFAULT_255_1_388
10
25.1222963
20
-0.5153102
11
25.7963554
21
-0.5153102
0
LINE
8
DEFAULT_255_1_388
10
25.7963554
20
-0.5153102
11
25.7963554
21
-0.6698197
0
LINE
8
DEFAULT_255_1_388
10
25.7963554
20
-0.6698197
11
25.2641559
21
-0.6698197
0
LINE
8
DEFAULT_255_1_388
10
25.2641559
20
-0.6698197
11
25.2243991
21
-1.0285348
0
LINE
8
DEFAULT_255_1_388
10
25.0084472
20
-1.4848348
11
25.1665709
21
-1.4848348
0
LINE
8
DEFAULT_255_1_388
10
25.2334347
20
-1.1694908
11
25.1891601
21
-1.2056334
0
ARC
8
DEFAULT_255_1_388
10
25.4330604
20
-1.3862759
40
0.4141476
50
93.7181681
51
120.253934
0
ARC
8
DEFAULT_255_1_388
10
25.4436656
20
-1.4771716
40
0.5055616
50
89.9660471
51
94.2495185
0
ARC
8
DEFAULT_255_1_388
10
25.4482478
20
-1.4108846
40
0.4392953
50
73.8045384
51
90.5585736
0
ARC
8
DEFAULT_255_1_388
10
25.4746736
20
-1.314348
40
0.3392225
50
41.3071072
51
73.543002
0
ARC
8
DEFAULT_255_1_388
10
25.4278556
20
-1.3546539
40
0.4009977
50
13.5075837
51
41.2174839
0
ARC
8
DEFAULT_255_1_388
10
25.2431653
20
-1.4030093
40
0.5918864
50
1.1330171
51
13.8830737
0
ARC
8
DEFAULT_255_1_388
10
25.0835299
20
-1.4115478
40
0.7516787
50
359.9925091
51
1.5431298
0
ARC
8
DEFAULT_255_1_388
10
25.2279914
20
-1.4161973
40
0.6072343
50
347.8572712
51
0.4294349
0
ARC
8
DEFAULT_255_1_388
10
25.4249049
20
-1.4608102
40
0.4053482
50
323.6727442
51
348.1674594
0
ARC
8
DEFAULT_255_1_388
10
25.4580013
20
-1.4809825
40
0.3667495
50
316.8171818
51
323.1486802
0
ARC
8
DEFAULT_255_1_388
10
25.4649137
20
-1.4851388
40
0.358869
50
281.839603
51
316.5458142
0
ARC
8
DEFAULT_255_1_388
10
25.4226425
20
-1.3101637
40
0.5388223
50
269.5770964
51
282.4214641
0
ARC
8
DEFAULT_255_1_388
10
25.4146345
20
-1.334207
40
0.5147801
50
256.2425863
51
270.4486481
0
ARC
8
DEFAULT_255_1_388
10
25.3809873
20
-1.4691876
40
0.3756708
50
228.9024379
51
256.33135
0
ARC
8
DEFAULT_255_1_388
10
25.3726853
20
-1.4822946
40
0.360344
50
193.7536029
51
228.5272638
0
ARC
8
DEFAULT_255_1_388
10
25.5119418
20
-1.4414537
40
0.5053599
50
184.9244437
51
194.4976052
0
ARC
8
DEFAULT_255_1_388
10
25.533606
20
-1.4374278
40
0.3700839
50
187.3596909
51
198.6733728
0
ARC
8
DEFAULT_255_1_388
10
25.4155303
20
-1.4783627
40
0.2451195
50
198.4453795
51
217.7945479
0
ARC
8
DEFAULT_255_1_388
10
25.3822476
20
-1.5019437
40
0.2043754
50
218.2887146
51
228.5613203
0
ARC
8
DEFAULT_255_1_388
10
25.3932482
20
-1.4871098
40
0.2227819
50
228.9652423
51
258.1237049
0
ARC
8
DEFAULT_255_1_388
10
25.416392
20
-1.3880036
40
0.3245374
50
257.7260585
51
270.4013717
0
ARC
8
DEFAULT_255_1_388
10
25.4214418
20
-1.4380745
40
0.2744726
50
269.4204315
51
286.420998
0
ARC
8
DEFAULT_255_1_388
10
25.4381474
20
-1.4987295
40
0.2115721
50
286.7250065
51
320.6004665
0
ARC
8
DEFAULT_255_1_388
10
25.3950389
20
-1.4637473
40
0.2670878
50
320.6712228
51
344.5440474
0
ARC
8
DEFAULT_255_1_388
10
25.2649103
20
-1.4255606
40
0.4026927
50
344.241448
51
356.735803
0
ARC
8
DEFAULT_255_1_388
10
25.124541
20
-1.4139344
40
0.5435085
50
356.3547471
51
0.0507222
0
ARC
8
DEFAULT_255_1_388
10
25.2747675
20
-1.4104188
40
0.3932934
50
359.5579289
51
12.9534322
0
ARC
8
DEFAULT_255_1_388
10
25.3934515
20
-1.3816414
40
0.2711827
50
12.6489751
51
41.608121
0
ARC
8
DEFAULT_255_1_388
10
25.4193675
20
-1.3596054
40
0.2371737
50
41.7851122
51
85.9892156
0
ARC
8
DEFAULT_255_1_388
10
25.4054985
20
-1.4511262
40
0.3295244
50
84.6965848
51
90.0672125
0
ARC
8
DEFAULT_255_1_388
10
25.4028553
20
-1.5262882
40
0.4046926
50
89.6804991
51
99.161352
0
ARC
8
DEFAULT_255_1_388
10
25.3797562
20
-1.3882152
40
0.2647044
50
98.9836248
51
113.8905702
0
ARC
8
DEFAULT_255_1_388
10
25.3539237
20
-1.3272882
40
0.1985386
50
114.195234
51
127.3641866
0
LINE
8
DEFAULT_255_1_388
10
26.6539318
20
13.6021382
11
26.6539318
21
13.4657
0
LINE
8
DEFAULT_255_1_388
10
26.6539318
20
13.4657
11
25.7919313
21
13.4657
0
LINE
8
DEFAULT_255_1_388
10
25.7919313
20
13.4657
11
25.7919313
21
13.5858741
0
LINE
8
DEFAULT_255_1_388
10
25.7919313
20
13.5858741
11
26.2473278
21
14.0918702
0
LINE
8
DEFAULT_255_1_388
10
25.9337909
20
14.3936607
11
25.7666315
21
14.3936607
0
LINE
8
DEFAULT_255_1_388
10
26.3458163
20
13.984346
11
25.9934262
21
13.6021382
0
LINE
8
DEFAULT_255_1_388
10
25.9934262
20
13.6021382
11
26.6539318
21
13.6021382
0
ARC
8
DEFAULT_255_1_388
10
24.7297337
20
15.4338983
40
2.0258655
50
318.5132526
51
320.7829045
0
ARC
8
DEFAULT_255_1_388
10
25.3245294
20
14.9497929
40
1.2589638
50
320.7372878
51
323.9739031
0
ARC
8
DEFAULT_255_1_388
10
25.7654226
20
14.6303554
40
0.7145141
50
323.8962701
51
328.64194
0
ARC
8
DEFAULT_255_1_388
10
25.9956484
20
14.4883545
40
0.4440242
50
328.8294576
51
331.7891185
0
ARC
8
DEFAULT_255_1_388
10
26.1078804
20
14.4304374
40
0.3177517
50
331.4254512
51
352.9365785
0
ARC
8
DEFAULT_255_1_388
10
26.1231804
20
14.427005
40
0.3021496
50
353.2257659
51
0.0166158
0
ARC
8
DEFAULT_255_1_388
10
26.1468564
20
14.4295894
40
0.2784847
50
359.486299
51
15.9343185
0
ARC
8
DEFAULT_255_1_388
10
26.2038831
20
14.4449269
40
0.2194403
50
16.1712913
51
43.5286088
0
ARC
8
DEFAULT_255_1_388
10
26.2125776
20
14.4536191
40
0.2071504
50
43.4417391
51
83.1661095
0
ARC
8
DEFAULT_255_1_388
10
26.1974937
20
14.3707316
40
0.2912888
50
82.160179
51
90.1505708
0
ARC
8
DEFAULT_255_1_388
10
26.1939418
20
14.3103279
40
0.3517025
50
89.5460741
51
102.5418361
0
ARC
8
DEFAULT_255_1_388
10
26.1666138
20
14.4262933
40
0.2325748
50
102.1738499
51
129.206123
0
ARC
8
DEFAULT_255_1_388
10
26.1577592
20
14.4402664
40
0.2161591
50
129.72865
51
135.753947
0
ARC
8
DEFAULT_255_1_388
10
26.1714074
20
14.4293728
40
0.2335433
50
136.1757367
51
166.3673339
0
ARC
8
DEFAULT_255_1_388
10
26.2846762
20
14.3990148
40
0.3507873
50
165.9090694
51
178.8684636
0
ARC
8
DEFAULT_255_1_388
10
26.3822534
20
14.3937263
40
0.4484624
50
178.4391136
51
180.0083808
0
ARC
8
DEFAULT_255_1_388
10
26.2243235
20
14.3981197
40
0.4577138
50
163.2878482
51
180.5581842
0
ARC
8
DEFAULT_255_1_388
10
26.1341276
20
14.4229393
40
0.3641968
50
133.4540601
51
162.947111
0
ARC
8
DEFAULT_255_1_388
10
26.1542158
20
14.4015789
40
0.3935189
50
100.7869829
51
133.4382499
0
ARC
8
DEFAULT_255_1_388
10
26.1933403
20
14.2273399
40
0.5720313
50
89.660664
51
101.3702276
0
ARC
8
DEFAULT_255_1_388
10
26.2008012
20
14.2342263
40
0.5651495
50
78.2172678
51
90.412935
0
ARC
8
DEFAULT_255_1_388
10
26.2407478
20
14.4169511
40
0.378122
50
55.9269121
51
78.4888449
0
ARC
8
DEFAULT_255_1_388
10
26.2628193
20
14.4550187
40
0.3342379
50
47.929771
51
55.4049217
0
ARC
8
DEFAULT_255_1_388
10
26.2742723
20
14.4666618
40
0.3179217
50
4.334829
51
48.0560205
0
ARC
8
DEFAULT_255_1_388
10
26.1510525
20
14.4475487
40
0.442341
50
359.9251713
51
5.5971671
0
ARC
8
DEFAULT_255_1_388
10
26.199268
20
14.4538728
40
0.3941854
50
337.8914027
51
358.9967534
0
ARC
8
DEFAULT_255_1_388
10
25.894025
20
14.5716295
40
0.7213271
50
326.9132501
51
338.3508308
0
ARC
8
DEFAULT_255_1_388
10
25.4456362
20
14.8590105
40
1.2538973
50
319.6471833
51
327.0959558
0
ARC
8
DEFAULT_255_1_388
10
25.014302
20
15.214805
40
1.8129975
50
317.2588228
51
319.9045804
0
LINE
8
DEFAULT_255_1_388
10
27.5367143
20
14.7812898
11
27.5367143
21
13.907543
0
LINE
8
DEFAULT_255_1_388
10
27.5367143
20
13.907543
11
27.7192343
21
13.907543
0
LINE
8
DEFAULT_255_1_388
10
27.7192343
20
13.907543
11
27.7192343
21
13.7711048
0
LINE
8
DEFAULT_255_1_388
10
27.7192343
20
13.7711048
11
27.5367143
21
13.7711048
0
LINE
8
DEFAULT_255_1_388
10
27.5367143
20
13.7711048
11
27.5367143
21
13.4657
0
LINE
8
DEFAULT_255_1_388
10
27.5367143
20
13.4657
11
27.3686513
21
13.4657
0
LINE
8
DEFAULT_255_1_388
10
27.3686513
20
13.4657
11
27.3686513
21
13.7711048
0
LINE
8
DEFAULT_255_1_388
10
27.3686513
20
13.7711048
11
26.769588
21
13.7711048
0
LINE
8
DEFAULT_255_1_388
10
26.769588
20
13.7711048
11
26.769588
21
13.8695933
0
LINE
8
DEFAULT_255_1_388
10
26.769588
20
13.8695933
11
27.3587121
21
14.7812898
0
LINE
8
DEFAULT_255_1_388
10
27.3587121
20
14.7812898
11
27.5367143
21
14.7812898
0
LINE
8
DEFAULT_255_1_388
10
27.3487729
20
14.5165455
11
26.9593366
21
13.907543
0
LINE
8
DEFAULT_255_1_388
10
26.9593366
20
13.907543
11
27.3686513
21
13.907543
0
LINE
8
DEFAULT_255_1_388
10
27.3686513
20
13.907543
11
27.3686513
21
14.552688
0
LINE
8
DEFAULT_255_1_388
10
27.3686513
20
14.552688
11
27.3487729
21
14.5165455
0
ENDSEC
0
EOF