0
SECTION
2
HEADER
9
$MEASUREMENT
70
1
0
ENDSEC
0
SECTION
2
TABLES
0
TABLE
2
LTYPE
0
LTYPE
72
65
70
64
2
CONTINUOUS
3
______
73
0
40
0
0
ENDTAB
0
TABLE
2
LAYER
0
LAYER
2
DEFAULT_255_2_778
70
0
62
255
6
CONTINUOUS
0
LAYER
2
DEFAULT_255_1_234
70
0
62
255
6
CONTINUOUS
0
ENDTAB
0
ENDSEC
0
SECTION
2
ENTITIES
0
LINE
8
DEFAULT_255_2_778
10
8.0698004
20
10.4510499
11
39.8198004
21
10.4510499
0
LINE
8
DEFAULT_255_2_778
10
39.8198004
20
10.4510499
11
39.8198004
21
2.5135499
0
LINE
8
DEFAULT_255_2_778
10
39.8198004
20
2.5135499
11
8.0698004
21
2.5135499
0
LINE
8
DEFAULT_255_2_778
10
8.0698004
20
2.5135499
11
8.0698004
21
10.4510499
0
ARC
8
DEFAULT_255_2_778
10
21.2963332
20
9.1311135
40
1.3202532
50
148.7968675
51
180.1300552
0
ARC
8
DEFAULT_255_2_778
10
21.2954736
20
9.1315468
40
1.3192936
50
97.5665172
51
148.7936255
0
ARC
8
DEFAULT_255_2_778
10
21.298579
20
9.1048258
40
1.3461909
50
89.9827905
51
97.547783
0
ARC
8
DEFAULT_255_2_778
10
21.3019802
20
9.1307668
40
1.3202532
50
58.7968675
51
90.1300552
0
ARC
8
DEFAULT_255_2_778
10
21.3024136
20
9.1316264
40
1.3192936
50
7.5665172
51
58.7936255
0
ARC
8
DEFAULT_255_2_778
10
21.2756926
20
9.128521
40
1.3461909
50
359.9827905
51
7.547783
0
ARC
8
DEFAULT_255_2_778
10
21.3016335
20
9.1251198
40
1.3202532
50
328.7968675
51
0.1300552
0
ARC
8
DEFAULT_255_2_778
10
21.3024931
20
9.1246864
40
1.3192936
50
277.5665172
51
328.7936255
0
ARC
8
DEFAULT_255_2_778
10
21.2993877
20
9.1514074
40
1.3461909
50
269.9827905
51
277.547783
0
ARC
8
DEFAULT_255_2_778
10
21.2959865
20
9.1254665
40
1.3202532
50
238.7968675
51
270.1300552
0
ARC
8
DEFAULT_255_2_778
10
21.2955532
20
9.1246069
40
1.3192936
50
187.5665172
51
238.7936255
0
ARC
8
DEFAULT_255_2_778
10
21.3222742
20
9.1277123
40
1.3461909
50
179.9827905
51
187.547783
0
LINE
8
DEFAULT_255_2_778
10
19.9760834
20
9.1281166
11
19.9760834
21
9.1281166
0
LINE
8
DEFAULT_255_2_778
10
19.3146251
20
9.1280875
11
21.2990251
21
7.1436875
0
LINE
8
DEFAULT_255_2_778
10
21.2990251
20
7.1436875
11
23.2833251
21
9.1280875
0
ARC
8
DEFAULT_255_2_778
10
26.5879332
20
9.1311135
40
1.3202532
50
148.7968675
51
180.1300552
0
ARC
8
DEFAULT_255_2_778
10
26.5870736
20
9.1315468
40
1.3192936
50
97.5665172
51
148.7936255
0
ARC
8
DEFAULT_255_2_778
10
26.590179
20
9.1048258
40
1.3461909
50
89.9827905
51
97.547783
0
ARC
8
DEFAULT_255_2_778
10
26.5935802
20
9.1307668
40
1.3202532
50
58.7968675
51
90.1300552
0
ARC
8
DEFAULT_255_2_778
10
26.5940136
20
9.1316264
40
1.3192936
50
7.5665172
51
58.7936255
0
ARC
8
DEFAULT_255_2_778
10
26.5672926
20
9.128521
40
1.3461909
50
359.9827905
51
7.547783
0
ARC
8
DEFAULT_255_2_778
10
26.5932335
20
9.1251198
40
1.3202532
50
328.7968675
51
0.1300552
0
ARC
8
DEFAULT_255_2_778
10
26.5940931
20
9.1246864
40
1.3192936
50
277.5665172
51
328.7936255
0
ARC
8
DEFAULT_255_2_778
10
26.5909877
20
9.1514074
40
1.3461909
50
269.9827905
51
277.547783
0
ARC
8
DEFAULT_255_2_778
10
26.5875865
20
9.1254665
40
1.3202532
50
238.7968675
51
270.1300552
0
ARC
8
DEFAULT_255_2_778
10
26.5871532
20
9.1246069
40
1.3192936
50
187.5665172
51
238.7936255
0
ARC
8
DEFAULT_255_2_778
10
26.6138742
20
9.1277123
40
1.3461909
50
179.9827905
51
187.547783
0
LINE
8
DEFAULT_255_2_778
10
25.2676834
20
9.1281166
11
25.2676834
21
9.1281166
0
LINE
8
DEFAULT_255_2_778
10
24.6062251
20
9.1280875
11
26.5906251
21
7.1436875
0
LINE
8
DEFAULT_255_2_778
10
26.5906251
20
7.1436875
11
28.5749251
21
9.1280875
0
LINE
8
DEFAULT_255_2_778
10
21.299
20
7.1437041
11
21.299
21
2.5135041
0
LINE
8
DEFAULT_255_2_778
10
26.5906
20
7.1437041
11
26.5906
21
2.5135041
0
LINE
8
DEFAULT_255_2_778
10
16.0073
20
2.5135499
11
16.0073
21
10.4510499
0
LINE
8
DEFAULT_255_2_778
10
15.3458417
20
4.4978875
11
16.6687417
21
4.4978875
0
LINE
8
DEFAULT_255_2_778
10
16.6687417
20
4.4978875
11
16.0073417
21
2.5134875
0
LINE
8
DEFAULT_255_2_778
10
16.0073417
20
2.5134875
11
15.3458417
21
4.4978875
0
LINE
8
DEFAULT_255_2_778
10
10.7155834
20
10.4510499
11
10.7155834
21
8.3343499
0
LINE
8
DEFAULT_255_2_778
10
10.7155834
20
8.3343499
11
11.9061834
21
8.8635499
0
LINE
8
DEFAULT_255_2_778
10
11.9061834
20
8.8635499
11
10.7155834
21
10.4510499
0
LINE
8
DEFAULT_255_2_778
10
10.7155834
20
10.4510499
11
13.3613834
21
2.5135499
0
LINE
8
DEFAULT_255_2_778
10
10.7156
20
2.5135166
11
10.7156
21
5.1593166
0
LINE
8
DEFAULT_255_2_778
10
10.0541417
20
5.1593
11
11.3770417
21
5.1593
0
LINE
8
DEFAULT_255_2_778
10
18.6531
20
10.4510499
11
18.6531
21
2.5135499
0
LINE
8
DEFAULT_255_2_778
10
29.2365
20
10.4510499
11
29.2365
21
2.5135499
0
LINE
8
DEFAULT_255_2_778
10
31.8823
20
2.5135499
11
31.8823
21
10.4510499
0
LINE
8
DEFAULT_255_2_778
10
31.2208417
20
4.4978875
11
32.5437417
21
4.4978875
0
LINE
8
DEFAULT_255_2_778
10
32.5437417
20
4.4978875
11
31.8823417
21
2.5134875
0
LINE
8
DEFAULT_255_2_778
10
31.8823417
20
2.5134875
11
31.2208417
21
4.4978875
0
LINE
8
DEFAULT_255_2_778
10
37.174
20
2.5135166
11
37.174
21
5.1593166
0
LINE
8
DEFAULT_255_2_778
10
36.5125417
20
5.1593
11
37.8354417
21
5.1593
0
LINE
8
DEFAULT_255_2_778
10
21.299
20
15.7426333
11
21.299
21
10.4509333
0
LINE
8
DEFAULT_255_2_778
10
21.299
20
2.5135333
11
21.299
21
-2.7781667
0
LINE
8
DEFAULT_255_2_778
10
23.2833417
20
5.1593
11
24.6062417
21
5.1593
0
LINE
8
DEFAULT_255_2_778
10
23.9448
20
5.1593499
11
23.9448
21
-2.7781501
0
LINE
8
DEFAULT_255_2_778
10
26.5906
20
10.4509333
11
26.5906
21
15.7426333
0
LINE
8
DEFAULT_255_2_778
10
26.5906
20
2.5135333
11
26.5906
21
-2.7781667
0
LINE
8
DEFAULT_255_2_778
10
5.4239834
20
5.6885
11
8.0697834
21
5.6885
0
LINE
8
DEFAULT_255_2_778
10
8.0697834
20
5.6885
11
8.0697834
21
2.5135
0
LINE
8
DEFAULT_255_2_778
10
8.0697834
20
2.5135
11
5.4239834
21
2.5135
0
LINE
8
DEFAULT_255_2_778
10
5.4239834
20
2.5135
11
5.4239834
21
5.6885
0
LINE
8
DEFAULT_255_2_778
10
5.4239417
20
5.6885
11
6.7468417
21
4.101
0
LINE
8
DEFAULT_255_2_778
10
6.7468417
20
4.101
11
5.4239417
21
2.5135
0
LINE
8
DEFAULT_255_2_778
10
2.7780834
20
5.6885
11
5.4238834
21
5.6885
0
LINE
8
DEFAULT_255_2_778
10
5.4238834
20
5.6885
11
5.4238834
21
2.5135
0
LINE
8
DEFAULT_255_2_778
10
5.4238834
20
2.5135
11
2.7780834
21
2.5135
0
LINE
8
DEFAULT_255_2_778
10
2.7780834
20
2.5135
11
2.7780834
21
5.6885
0
LINE
8
DEFAULT_255_2_778
10
3.4395417
20
2.5135
11
4.7624417
21
5.6885
0
LINE
8
DEFAULT_255_2_778
10
39.8197834
20
5.6885
11
42.4655834
21
5.6885
0
LINE
8
DEFAULT_255_2_778
10
42.4655834
20
5.6885
11
42.4655834
21
2.5135
0
LINE
8
DEFAULT_255_2_778
10
42.4655834
20
2.5135
11
39.8197834
21
2.5135
0
LINE
8
DEFAULT_255_2_778
10
39.8197834
20
2.5135
11
39.8197834
21
5.6885
0
LINE
8
DEFAULT_255_2_778
10
42.4656417
20
5.6885
11
41.1427417
21
4.101
0
LINE
8
DEFAULT_255_2_778
10
41.1427417
20
4.101
11
42.4656417
21
2.5135
0
LINE
8
DEFAULT_255_2_778
10
42.4655834
20
5.6885
11
45.1113834
21
5.6885
0
LINE
8
DEFAULT_255_2_778
10
45.1113834
20
5.6885
11
45.1113834
21
2.5135
0
LINE
8
DEFAULT_255_2_778
10
45.1113834
20
2.5135
11
42.4655834
21
2.5135
0
LINE
8
DEFAULT_255_2_778
10
42.4655834
20
2.5135
11
42.4655834
21
5.6885
0
LINE
8
DEFAULT_255_2_778
10
43.1270417
20
5.6885
11
44.4499417
21
2.5135
0
LINE
8
DEFAULT_255_2_778
10
5.4239834
20
8.546
11
5.7179834
21
10.451
0
LINE
8
DEFAULT_255_2_778
10
5.7179834
20
10.451
11
6.1589834
21
7.276
0
LINE
8
DEFAULT_255_2_778
10
6.1589834
20
7.276
11
6.6000834
21
10.451
0
LINE
8
DEFAULT_255_2_778
10
6.6000834
20
10.451
11
7.0410834
21
7.276
0
LINE
8
DEFAULT_255_2_778
10
7.0410834
20
7.276
11
7.4821834
21
10.451
0
LINE
8
DEFAULT_255_2_778
10
7.4821834
20
10.451
11
7.9232834
21
7.276
0
LINE
8
DEFAULT_255_2_778
10
7.9232834
20
7.276
11
8.0697834
21
8.546
0
LINE
8
DEFAULT_255_2_778
10
39.8198188
20
8.546
11
40.1138188
21
10.451
0
LINE
8
DEFAULT_255_2_778
10
40.1138188
20
10.451
11
40.5548188
21
7.276
0
LINE
8
DEFAULT_255_2_778
10
40.5548188
20
7.276
11
40.9959188
21
10.451
0
LINE
8
DEFAULT_255_2_778
10
40.9959188
20
10.451
11
41.4369188
21
7.276
0
LINE
8
DEFAULT_255_2_778
10
41.4369188
20
7.276
11
41.8780188
21
10.451
0
LINE
8
DEFAULT_255_2_778
10
41.8780188
20
10.451
11
42.3191188
21
7.276
0
LINE
8
DEFAULT_255_2_778
10
42.3191188
20
7.276
11
42.4662188
21
8.546
0
LINE
8
DEFAULT_255_2_778
10
20.6375417
20
4.4978875
11
21.9604417
21
4.4978875
0
LINE
8
DEFAULT_255_2_778
10
21.9604417
20
4.4978875
11
21.2990417
21
2.5134875
0
LINE
8
DEFAULT_255_2_778
10
21.2990417
20
2.5134875
11
20.6375417
21
4.4978875
0
LINE
8
DEFAULT_255_2_778
10
25.9291417
20
4.4978875
11
27.2520417
21
4.4978875
0
LINE
8
DEFAULT_255_2_778
10
27.2520417
20
4.4978875
11
26.5906417
21
2.5134875
0
LINE
8
DEFAULT_255_2_778
10
26.5906417
20
2.5134875
11
25.9291417
21
4.4978875
0
LINE
8
DEFAULT_255_2_778
10
34.5280834
20
2.5135499
11
37.1738834
21
10.4510499
0
LINE
8
DEFAULT_255_2_778
10
37.1738834
20
10.4510499
11
37.1738834
21
8.3343499
0
LINE
8
DEFAULT_255_2_778
10
37.1738834
20
8.3343499
11
35.9832834
21
8.8635499
0
LINE
8
DEFAULT_255_2_778
10
35.9832834
20
8.8635499
11
37.1738834
21
10.4510499
0
LINE
8
DEFAULT_255_1_234
10
21.5644137
20
-0.6674567
11
21.5644137
21
-1.8425
0
LINE
8
DEFAULT_255_1_234
10
21.5644137
20
-1.8425
11
21.4150234
21
-1.8425
0
LINE
8
DEFAULT_255_1_234
10
21.4150234
20
-1.8425
11
21.4150234
21
-0.8521867
0
LINE
8
DEFAULT_255_1_234
10
21.4150234
20
-0.8521867
11
21.1154396
21
-0.9622215
0
LINE
8
DEFAULT_255_1_234
10
21.1154396
20
-0.9622215
11
21.1154396
21
-0.8272883
0
LINE
8
DEFAULT_255_1_234
10
21.1154396
20
-0.8272883
11
21.5411217
21
-0.6674567
0
LINE
8
DEFAULT_255_1_234
10
21.5411217
20
-0.6674567
11
21.5644137
21
-0.6674567
0
LINE
8
DEFAULT_255_1_234
10
22.2157877
20
-1.3067831
11
22.2157877
21
-1.1855038
0
LINE
8
DEFAULT_255_1_234
10
22.2157877
20
-1.1855038
11
22.3274289
21
-1.1855038
0
LINE
8
DEFAULT_255_1_234
10
22.1370767
20
-0.9798913
11
21.9884895
21
-0.9798913
0
LINE
8
DEFAULT_255_1_234
10
21.9780482
20
-1.5340812
11
22.1274386
21
-1.5340812
0
LINE
8
DEFAULT_255_1_234
10
22.3274289
20
-1.3067831
11
22.2157877
21
-1.3067831
0
ARC
8
DEFAULT_255_1_234
10
22.3245155
20
-0.8462287
40
0.3392876
50
270.4919872
51
281.8951556
0
ARC
8
DEFAULT_255_1_234
10
22.3486417
20
-0.9564298
40
0.2264817
50
281.6691735
51
301.2943132
0
ARC
8
DEFAULT_255_1_234
10
22.3656627
20
-0.9875696
40
0.1910381
50
301.7833094
51
311.7545298
0
ARC
8
DEFAULT_255_1_234
10
22.3748203
20
-0.9977252
40
0.1773635
50
311.7323931
51
354.2802411
0
ARC
8
DEFAULT_255_1_234
10
22.3021828
20
-0.9852278
40
0.2509385
50
353.0937916
51
0.1181479
0
ARC
8
DEFAULT_255_1_234
10
22.2560613
20
-0.9804614
40
0.2970898
50
359.1805295
51
15.0453146
0
ARC
8
DEFAULT_255_1_234
10
22.390645
20
-0.9412008
40
0.1569564
50
13.9577229
51
77.6713066
0
ARC
8
DEFAULT_255_1_234
10
22.3519979
20
-1.0797051
40
0.3006298
50
76.1116566
51
90.7026153
0
ARC
8
DEFAULT_255_1_234
10
22.3460817
20
-1.0523455
40
0.2732568
50
89.5324876
51
103.531937
0
ARC
8
DEFAULT_255_1_234
10
22.3260261
20
-0.9724116
40
0.1908508
50
103.2931773
51
133.5619022
0
ARC
8
DEFAULT_255_1_234
10
22.321575
20
-0.9664625
40
0.1834746
50
133.8349307
51
173.5344437
0
ARC
8
DEFAULT_255_1_234
10
22.3938793
20
-0.9792787
40
0.2568033
50
172.5096846
51
180.1366907
0
ARC
8
DEFAULT_255_1_234
10
22.2987687
20
-0.9758378
40
0.3103056
50
155.3484492
51
180.7484736
0
ARC
8
DEFAULT_255_1_234
10
22.2938776
20
-0.9787154
40
0.3070957
50
131.5744599
51
154.4798489
0
ARC
8
DEFAULT_255_1_234
10
22.3251923
20
-1.010369
40
0.3515643
50
96.9875458
51
131.9690667
0
ARC
8
DEFAULT_255_1_234
10
22.3471403
20
-1.1349364
40
0.4779224
50
89.8596053
51
97.7825159
0
ARC
8
DEFAULT_255_1_234
10
22.3519466
20
-1.1611384
40
0.5041361
50
78.3655447
51
90.4131539
0
ARC
8
DEFAULT_255_1_234
10
22.3877384
20
-0.9952113
40
0.3344039
50
56.6229102
51
78.638727
0
ARC
8
DEFAULT_255_1_234
10
22.4092328
20
-0.9576195
40
0.2912001
50
47.0253525
51
56.0854072
0
ARC
8
DEFAULT_255_1_234
10
22.4112108
20
-0.9536777
40
0.2869704
50
10.9208013
51
46.7778124
0
ARC
8
DEFAULT_255_1_234
10
22.2748174
20
-0.9852143
40
0.426899
50
359.6364486
51
11.6087304
0
ARC
8
DEFAULT_255_1_234
10
22.4583018
20
-0.9867248
40
0.243409
50
332.3549906
51
359.7179418
0
ARC
8
DEFAULT_255_1_234
10
22.393262
20
-0.9558858
40
0.3153459
50
325.2333722
51
332.8745602
0
ARC
8
DEFAULT_255_1_234
10
22.4085244
20
-0.9665172
40
0.2967456
50
292.9802137
51
325.2392345
0
ARC
8
DEFAULT_255_1_234
10
22.3810617
20
-0.9131137
40
0.3566604
50
292.5402179
51
293.6924929
0
ARC
8
DEFAULT_255_1_234
10
22.4203213
20
-1.5585909
40
0.3307468
50
57.6435486
51
72.8625112
0
ARC
8
DEFAULT_255_1_234
10
22.4557713
20
-1.5011451
40
0.2632492
50
36.7248896
51
57.4697979
0
ARC
8
DEFAULT_255_1_234
10
22.4546346
20
-1.499878
40
0.2634081
50
8.0545065
51
36.356114
0
ARC
8
DEFAULT_255_1_234
10
22.3683531
20
-1.5153826
40
0.3510261
50
359.8320645
51
8.5869982
0
ARC
8
DEFAULT_255_1_234
10
22.3308307
20
-1.5201899
40
0.3885653
50
343.9829931
51
0.5571613
0
ARC
8
DEFAULT_255_1_234
10
22.4194504
20
-1.5444562
40
0.2966924
50
311.6359546
51
343.7651759
0
ARC
8
DEFAULT_255_1_234
10
22.3816074
20
-1.5017898
40
0.3537231
50
279.7829875
51
311.6255694
0
ARC
8
DEFAULT_255_1_234
10
22.351485
20
-1.358072
40
0.5004971
50
269.7286406
51
280.3856417
0
ARC
8
DEFAULT_255_1_234
10
22.3452922
20
-1.3622004
40
0.4963778
50
256.6828919
51
270.4412052
0
ARC
8
DEFAULT_255_1_234
10
22.3114218
20
-1.5006606
40
0.3538406
50
229.4223008
51
256.8556159
0
ARC
8
DEFAULT_255_1_234
10
22.2699611
20
-1.5473264
40
0.2914296
50
181.818294
51
229.6455059
0
ARC
8
DEFAULT_255_1_234
10
22.3739567
20
-1.5342504
40
0.3959084
50
179.9755256
51
183.2323064
0
ARC
8
DEFAULT_255_1_234
10
22.3567313
20
-1.5362963
40
0.2293034
50
179.4465117
51
196.2869258
0
ARC
8
DEFAULT_255_1_234
10
22.3079721
20
-1.5496349
40
0.1787621
50
196.5661473
51
227.705904
0
ARC
8
DEFAULT_255_1_234
10
22.3243816
20
-1.5312845
40
0.2033784
50
227.7652068
51
257.8762805
0
ARC
8
DEFAULT_255_1_234
10
22.3468786
20
-1.4369844
40
0.3003081
50
257.4584385
51
270.426602
0
ARC
8
DEFAULT_255_1_234
10
22.3514352
20
-1.4080004
40
0.329292
50
269.5962073
51
280.8789248
0
ARC
8
DEFAULT_255_1_234
10
22.3743881
20
-1.5226315
40
0.2123908
50
280.6346389
51
299.8595945
0
ARC
8
DEFAULT_255_1_234
10
22.3934788
20
-1.5588788
40
0.171457
50
300.3576302
51
314.5517981
0
ARC
8
DEFAULT_255_1_234
10
22.3851848
20
-1.5528081
40
0.1816095
50
315.0728369
51
345.0431014
0
ARC
8
DEFAULT_255_1_234
10
22.2928662
20
-1.5259159
40
0.2777492
50
344.5986631
51
357.9269593
0
ARC
8
DEFAULT_255_1_234
10
22.2032989
20
-1.5197724
40
0.3674917
50
357.4748886
51
0.0231117
0
ARC
8
DEFAULT_255_1_234
10
22.3056098
20
-1.5173321
40
0.2651907
50
359.5047933
51
13.4239635
0
ARC
8
DEFAULT_255_1_234
10
22.3922741
20
-1.4951522
40
0.1757509
50
12.9498199
51
48.7551375
0
ARC
8
DEFAULT_255_1_234
10
22.3740475
20
-1.52006
40
0.2065134
50
49.5088623
51
72.1836453
0
ARC
8
DEFAULT_255_1_234
10
22.3382628
20
-1.6262709
40
0.3185836
50
71.9010081
51
84.3554254
0
ARC
8
DEFAULT_255_1_234
10
22.322126
20
-1.7623674
40
0.4556151
50
84.0193428
51
89.333121
0
LINE
8
DEFAULT_255_1_234
10
23.1105233
20
-1.2867037
11
22.9916536
21
-1.2561831
0
LINE
8
DEFAULT_255_1_234
10
22.9916536
20
-1.2561831
11
23.0510885
21
-0.6730789
0
LINE
8
DEFAULT_255_1_234
10
23.0510885
20
-0.6730789
11
23.6502562
21
-0.6730789
0
LINE
8
DEFAULT_255_1_234
10
23.6502562
20
-0.6730789
11
23.6502562
21
-0.8104216
0
LINE
8
DEFAULT_255_1_234
10
23.6502562
20
-0.8104216
11
23.1771868
21
-0.8104216
0
LINE
8
DEFAULT_255_1_234
10
23.1771868
20
-0.8104216
11
23.1418471
21
-1.1292816
0
LINE
8
DEFAULT_255_1_234
10
22.9498886
20
-1.5348844
11
23.090444
21
-1.5348844
0
LINE
8
DEFAULT_255_1_234
10
23.1498789
20
-1.2545768
11
23.1105233
21
-1.2867037
0
ARC
8
DEFAULT_255_1_234
10
23.3273255
20
-1.447277
40
0.3681349
50
93.7182161
51
120.2538958
0
ARC
8
DEFAULT_255_1_234
10
23.3367518
20
-1.5280606
40
0.449379
50
89.9660152
51
94.2496022
0
ARC
8
DEFAULT_255_1_234
10
23.3408252
20
-1.4691451
40
0.390482
50
73.8043271
51
90.5585896
0
ARC
8
DEFAULT_255_1_234
10
23.3643149
20
-1.3833398
40
0.3015334
50
41.3071453
51
73.5430202
0
ARC
8
DEFAULT_255_1_234
10
23.3226976
20
-1.4191676
40
0.3564457
50
13.5075983
51
41.2174222
0
ARC
8
DEFAULT_255_1_234
10
23.158518
20
-1.4621514
40
0.5261351
50
1.1331335
51
13.8829381
0
ARC
8
DEFAULT_255_1_234
10
23.0173549
20
-1.4697335
40
0.6674378
50
359.9919444
51
1.544251
0
ARC
8
DEFAULT_255_1_234
10
23.1450375
20
-1.473872
40
0.5397702
50
347.8572367
51
0.4293338
0
ARC
8
DEFAULT_255_1_234
10
23.3200693
20
-1.5135264
40
0.3603188
50
323.673004
51
348.1672506
0
ARC
8
DEFAULT_255_1_234
10
23.3495201
20
-1.5314832
40
0.3259678
50
316.8171152
51
323.1492751
0
ARC
8
DEFAULT_255_1_234
10
23.355639
20
-1.535154
40
0.3189975
50
281.8396411
51
316.5457803
0
ARC
8
DEFAULT_255_1_234
10
23.3180654
20
-1.3796238
40
0.4789527
50
269.5770101
51
282.4214771
0
ARC
8
DEFAULT_255_1_234
10
23.3109465
20
-1.4009875
40
0.45759
50
256.2427136
51
270.4486331
0
ARC
8
DEFAULT_255_1_234
10
23.2810368
20
-1.5209771
40
0.3339303
50
228.9023911
51
256.3314342
0
ARC
8
DEFAULT_255_1_234
10
23.27366
20
-1.5326254
40
0.32031
50
193.753695
51
228.5271154
0
ARC
8
DEFAULT_255_1_234
10
23.3974554
20
-1.49632
40
0.4492253
50
184.924711
51
194.497588
0
ARC
8
DEFAULT_255_1_234
10
23.4167121
20
-1.4927409
40
0.3289787
50
187.3600538
51
198.6732863
0
ARC
8
DEFAULT_255_1_234
10
23.3117415
20
-1.5291326
40
0.217884
50
198.4451669
51
217.794479
0
ARC
8
DEFAULT_255_1_234
10
23.282159
20
-1.5500915
40
0.1816698
50
218.2887171
51
228.5612368
0
ARC
8
DEFAULT_255_1_234
10
23.2919377
20
-1.5369037
40
0.1980329
50
228.9654866
51
258.1234728
0
ARC
8
DEFAULT_255_1_234
10
23.3125087
20
-1.4488167
40
0.2884748
50
257.7258293
51
270.401361
0
ARC
8
DEFAULT_255_1_234
10
23.3169974
20
-1.4933179
40
0.2439788
50
269.4204404
51
286.4209037
0
ARC
8
DEFAULT_255_1_234
10
23.3318461
20
-1.5472343
40
0.1880666
50
286.7251356
51
320.600362
0
ARC
8
DEFAULT_255_1_234
10
23.2935286
20
-1.5161405
40
0.2374121
50
320.6712579
51
344.5441685
0
ARC
8
DEFAULT_255_1_234
10
23.1778612
20
-1.4821955
40
0.3579479
50
344.2412205
51
356.7357071
0
ARC
8
DEFAULT_255_1_234
10
23.0529761
20
-1.4718556
40
0.4832297
50
356.3548756
51
0.0500261
0
ARC
8
DEFAULT_255_1_234
10
23.186627
20
-1.468735
40
0.3495889
50
359.5576869
51
12.953486
0
ARC
8
DEFAULT_255_1_234
10
23.2921167
20
-1.4431566
40
0.2410532
50
12.6490276
51
41.6081334
0
ARC
8
DEFAULT_255_1_234
10
23.3151538
20
-1.4235679
40
0.2108218
50
41.7850273
51
85.9892764
0
ARC
8
DEFAULT_255_1_234
10
23.3028275
20
-1.5048538
40
0.2928454
50
84.6957577
51
90.0676183
0
ARC
8
DEFAULT_255_1_234
10
23.3004759
20
-1.5717284
40
0.3597255
50
89.6804936
51
99.1614436
0
ARC
8
DEFAULT_255_1_234
10
23.279939
20
-1.4489869
40
0.235281
50
98.9830931
51
113.8908934
0
ARC
8
DEFAULT_255_1_234
10
23.25698
20
-1.3948413
40
0.176479
50
114.1950727
51
127.3641004
0
LINE
8
DEFAULT_255_1_234
10
24.6240119
20
13.5753792
11
24.6240119
21
13.4541
0
LINE
8
DEFAULT_255_1_234
10
24.6240119
20
13.4541
11
23.857784
21
13.4541
0
LINE
8
DEFAULT_255_1_234
10
23.857784
20
13.4541
11
23.857784
21
13.5609221
0
LINE
8
DEFAULT_255_1_234
10
23.857784
20
13.5609221
11
24.2625836
21
14.0106995
0
LINE
8
DEFAULT_255_1_234
10
23.9838823
20
14.2789595
11
23.8352952
21
14.2789595
0
LINE
8
DEFAULT_255_1_234
10
24.3501296
20
13.9151218
11
24.0368918
21
13.5753792
0
LINE
8
DEFAULT_255_1_234
10
24.0368918
20
13.5753792
11
24.6240119
21
13.5753792
0
ARC
8
DEFAULT_255_1_234
10
22.913567
20
15.2036527
40
1.8008286
50
318.5132453
51
320.7828378
0
ARC
8
DEFAULT_255_1_234
10
23.4422644
20
14.7733426
40
1.1191493
50
320.7372736
51
323.9737074
0
ARC
8
DEFAULT_255_1_234
10
23.8342501
20
14.4893361
40
0.6350923
50
323.8961724
51
328.6421089
0
ARC
8
DEFAULT_255_1_234
10
24.0389096
20
14.3631031
40
0.3946393
50
328.8299013
51
331.789948
0
ARC
8
DEFAULT_255_1_234
10
24.1386274
20
14.3116509
40
0.2824501
50
331.4255242
51
352.9364833
0
ARC
8
DEFAULT_255_1_234
10
24.1522775
20
14.3085976
40
0.2685315
50
353.2248685
51
0.0169286
0
ARC
8
DEFAULT_255_1_234
10
24.1732652
20
14.310895
40
0.2475536
50
359.4866256
51
15.9339782
0
ARC
8
DEFAULT_255_1_234
10
24.2239637
20
14.3245286
40
0.1950618
50
16.1714718
51
43.5284424
0
ARC
8
DEFAULT_255_1_234
10
24.2316946
20
14.3322573
40
0.184134
50
43.4415429
51
83.1661404
0
ARC
8
DEFAULT_255_1_234
10
24.2182864
20
14.2585771
40
0.258926
50
82.160215
51
90.1505798
0
ARC
8
DEFAULT_255_1_234
10
24.2151291
20
14.2048865
40
0.3126255
50
89.5460705
51
102.5418777
0
ARC
8
DEFAULT_255_1_234
10
24.1908377
20
14.3079665
40
0.2067346
50
102.1739365
51
129.2061916
0
ARC
8
DEFAULT_255_1_234
10
24.1829449
20
14.3204094
40
0.1921118
50
129.7279328
51
135.7542026
0
ARC
8
DEFAULT_255_1_234
10
24.1950977
20
14.3107045
40
0.2075944
50
136.175737
51
166.3674722
0
ARC
8
DEFAULT_255_1_234
10
24.2957896
20
14.2837182
40
0.3118201
50
165.9092917
51
178.8683903
0
ARC
8
DEFAULT_255_1_234
10
24.3822757
20
14.2790179
40
0.3983935
50
178.438168
51
180.0083905
0
ARC
8
DEFAULT_255_1_234
10
24.2421359
20
14.2829231
40
0.4068601
50
163.2878735
51
180.5581814
0
ARC
8
DEFAULT_255_1_234
10
24.1619621
20
14.304984
40
0.3237344
50
133.454115
51
162.9470031
0
ARC
8
DEFAULT_255_1_234
10
24.1798162
20
14.286
40
0.349795
50
100.7869394
51
133.4384016
0
ARC
8
DEFAULT_255_1_234
10
24.2145934
20
14.1311319
40
0.5084616
50
89.6605301
51
101.3704185
0
ARC
8
DEFAULT_255_1_234
10
24.2212273
20
14.1372496
40
0.502348
50
78.2171172
51
90.4130393
0
ARC
8
DEFAULT_255_1_234
10
24.2567351
20
14.2996637
40
0.3361092
50
55.9268222
51
78.4888551
0
ARC
8
DEFAULT_255_1_234
10
24.2763791
20
14.3335324
40
0.2970617
50
47.9292255
51
55.4054003
0
ARC
8
DEFAULT_255_1_234
10
24.2865352
20
14.3438502
40
0.2825983
50
4.3347696
51
48.0560701
0
ARC
8
DEFAULT_255_1_234
10
24.1769745
20
14.3268601
40
0.393225
50
359.925209
51
5.5967654
0
ARC
8
DEFAULT_255_1_234
10
24.2198637
20
14.3324816
40
0.3503892
50
337.8914096
51
358.9967724
0
ARC
8
DEFAULT_255_1_234
10
23.9485049
20
14.4371706
40
0.6412172
50
326.9135351
51
338.3505194
0
ARC
8
DEFAULT_255_1_234
10
23.5499353
20
14.6926284
40
1.1146189
50
319.6472867
51
327.095818
0
ARC
8
DEFAULT_255_1_234
10
23.1666356
20
15.0088
40
1.6114559
50
317.2586784
51
319.9046139
0
LINE
8
DEFAULT_255_1_234
10
25.4087127
20
14.6235211
11
25.4087127
21
13.846852
0
LINE
8
DEFAULT_255_1_234
10
25.4087127
20
13.846852
11
25.5709538
21
13.846852
0
LINE
8
DEFAULT_255_1_234
10
25.5709538
20
13.846852
11
25.5709538
21
13.7255728
0
LINE
8
DEFAULT_255_1_234
10
25.5709538
20
13.7255728
11
25.4087127
21
13.7255728
0
LINE
8
DEFAULT_255_1_234
10
25.4087127
20
13.7255728
11
25.4087127
21
13.4541
0
LINE
8
DEFAULT_255_1_234
10
25.4087127
20
13.4541
11
25.2593224
21
13.4541
0
LINE
8
DEFAULT_255_1_234
10
25.2593224
20
13.4541
11
25.2593224
21
13.7255728
0
LINE
8
DEFAULT_255_1_234
10
25.2593224
20
13.7255728
11
24.7268181
21
13.7255728
0
LINE
8
DEFAULT_255_1_234
10
24.7268181
20
13.7255728
11
24.7268181
21
13.8131187
0
LINE
8
DEFAULT_255_1_234
10
24.7268181
20
13.8131187
11
25.2504875
21
14.6235211
0
LINE
8
DEFAULT_255_1_234
10
25.2504875
20
14.6235211
11
25.4087127
21
14.6235211
0
LINE
8
DEFAULT_255_1_234
10
25.2416525
20
14.3881912
11
24.8954846
21
13.846852
0
LINE
8
DEFAULT_255_1_234
10
24.8954846
20
13.846852
11
25.2593224
21
13.846852
0
LINE
8
DEFAULT_255_1_234
10
25.2593224
20
13.846852
11
25.2593224
21
14.4203181
0
LINE
8
DEFAULT_255_1_234
10
25.2593224
20
14.4203181
11
25.2416525
21
14.3881912
0
ENDSEC
0
EOF