0
SECTION
2
HEADER
9
$MEASUREMENT
70
1
0
ENDSEC
0
SECTION
2
TABLES
0
TABLE
2
LTYPE
0
LTYPE
72
65
70
64
2
CONTINUOUS
3
______
73
0
40
0
0
ENDTAB
0
TABLE
2
LAYER
0
LAYER
2
DEFAULT_255_2_778
70
0
62
255
6
CONTINUOUS
0
LAYER
2
DEFAULT_255_1_234
70
0
62
255
6
CONTINUOUS
0
ENDTAB
0
ENDSEC
0
SECTION
2
ENTITIES
0
LINE
8
DEFAULT_255_2_778
10
7.408067
20
10.4510499
11
28.574767
21
10.4510499
0
LINE
8
DEFAULT_255_2_778
10
28.574767
20
10.4510499
11
28.574767
21
2.5135499
0
LINE
8
DEFAULT_255_2_778
10
28.574767
20
2.5135499
11
7.408067
21
2.5135499
0
LINE
8
DEFAULT_255_2_778
10
7.408067
20
2.5135499
11
7.408067
21
10.4510499
0
LINE
8
DEFAULT_255_2_778
10
10.0538834
20
10.4510499
11
10.0538834
21
8.3343499
0
LINE
8
DEFAULT_255_2_778
10
10.0538834
20
8.3343499
11
11.2444834
21
8.8635499
0
LINE
8
DEFAULT_255_2_778
10
11.2444834
20
8.8635499
11
10.0538834
21
10.4510499
0
LINE
8
DEFAULT_255_2_778
10
10.0538834
20
10.4510499
11
12.6996834
21
2.5135499
0
LINE
8
DEFAULT_255_2_778
10
17.9914
20
2.5135499
11
17.9914
21
10.4510499
0
LINE
8
DEFAULT_255_2_778
10
25.9289
20
-2.7781501
11
25.9289
21
5.1593499
0
LINE
8
DEFAULT_255_2_778
10
25.2674417
20
5.1593
11
26.5903417
21
5.1593
0
LINE
8
DEFAULT_255_2_778
10
23.2831
20
2.5135333
11
23.2831
21
-2.7781667
0
LINE
8
DEFAULT_255_2_778
10
20.6372
20
2.5135333
11
20.6372
21
-2.7781667
0
LINE
8
DEFAULT_255_2_778
10
25.9289
20
10.4509333
11
25.9289
21
15.7426333
0
LINE
8
DEFAULT_255_2_778
10
20.6372
20
10.4509333
11
20.6372
21
15.7426333
0
LINE
8
DEFAULT_255_2_778
10
23.2830834
20
2.5135499
11
25.9288834
21
10.4510499
0
LINE
8
DEFAULT_255_2_778
10
25.9288834
20
10.4510499
11
25.9288834
21
8.3343499
0
LINE
8
DEFAULT_255_2_778
10
25.9288834
20
8.3343499
11
24.7382834
21
8.8635499
0
LINE
8
DEFAULT_255_2_778
10
24.7382834
20
8.8635499
11
25.9288834
21
10.4510499
0
LINE
8
DEFAULT_255_2_778
10
10.0539
20
2.5135166
11
10.0539
21
5.1593166
0
LINE
8
DEFAULT_255_2_778
10
9.3924417
20
5.1593
11
10.7153417
21
5.1593
0
LINE
8
DEFAULT_255_2_778
10
20.6372
20
2.5135499
11
20.6372
21
10.4510499
0
LINE
8
DEFAULT_255_2_778
10
19.9757417
20
4.4978875
11
21.2986417
21
4.4978875
0
LINE
8
DEFAULT_255_2_778
10
21.2986417
20
4.4978875
11
20.6372417
21
2.5134875
0
LINE
8
DEFAULT_255_2_778
10
20.6372417
20
2.5134875
11
19.9757417
21
4.4978875
0
LINE
8
DEFAULT_255_2_778
10
15.3456
20
2.5135499
11
15.3456
21
10.4510499
0
LINE
8
DEFAULT_255_2_778
10
14.6841417
20
4.4978875
11
16.0070417
21
4.4978875
0
LINE
8
DEFAULT_255_2_778
10
16.0070417
20
4.4978875
11
15.3456417
21
2.5134875
0
LINE
8
DEFAULT_255_2_778
10
15.3456417
20
2.5134875
11
14.6841417
21
4.4978875
0
LINE
8
DEFAULT_255_2_778
10
7.4080834
20
4.3656
11
4.7622834
21
4.3656
0
LINE
8
DEFAULT_255_2_778
10
7.4080834
20
3.3073
11
4.7622834
21
3.3073
0
ARC
8
DEFAULT_255_2_778
10
4.7595332
20
3.8394135
40
1.3202532
50
148.7968675
51
180.1300552
0
ARC
8
DEFAULT_255_2_778
10
4.7586736
20
3.8398468
40
1.3192936
50
97.5665172
51
148.7936255
0
ARC
8
DEFAULT_255_2_778
10
4.761779
20
3.8131258
40
1.3461909
50
89.9827905
51
97.547783
0
ARC
8
DEFAULT_255_2_778
10
4.7651802
20
3.8390668
40
1.3202532
50
58.7968675
51
90.1300552
0
ARC
8
DEFAULT_255_2_778
10
4.7656136
20
3.8399264
40
1.3192936
50
7.5665172
51
58.7936255
0
ARC
8
DEFAULT_255_2_778
10
4.7388926
20
3.836821
40
1.3461909
50
359.9827905
51
7.547783
0
ARC
8
DEFAULT_255_2_778
10
4.7648335
20
3.8334198
40
1.3202532
50
328.7968675
51
0.1300552
0
ARC
8
DEFAULT_255_2_778
10
4.7656931
20
3.8329864
40
1.3192936
50
277.5665172
51
328.7936255
0
ARC
8
DEFAULT_255_2_778
10
4.7625877
20
3.8597074
40
1.3461909
50
269.9827905
51
277.547783
0
ARC
8
DEFAULT_255_2_778
10
4.7591865
20
3.8337665
40
1.3202532
50
238.7968675
51
270.1300552
0
ARC
8
DEFAULT_255_2_778
10
4.7587532
20
3.8329069
40
1.3192936
50
187.5665172
51
238.7936255
0
ARC
8
DEFAULT_255_2_778
10
4.7854742
20
3.8360123
40
1.3461909
50
179.9827905
51
187.547783
0
LINE
8
DEFAULT_255_2_778
10
3.4392834
20
3.8364166
11
3.4392834
21
3.8364166
0
ARC
8
DEFAULT_255_2_778
10
4.7607557
20
3.8378443
40
0.6600157
50
89.871003
51
180.128997
0
ARC
8
DEFAULT_255_2_778
10
4.763649
20
3.8378655
40
0.6599943
50
359.8691577
51
90.1221758
0
ARC
8
DEFAULT_255_2_778
10
4.7636705
20
3.8349295
40
0.6599728
50
269.8759594
51
0.1240406
0
ARC
8
DEFAULT_255_2_778
10
4.7607345
20
3.8349508
40
0.6599942
50
179.8778094
51
270.1308423
0
LINE
8
DEFAULT_255_2_778
10
4.1007417
20
3.8363583
11
4.1007417
21
3.8363583
0
LINE
8
DEFAULT_255_2_778
10
28.5747188
20
3.7835
11
28.8687188
21
5.6885
0
LINE
8
DEFAULT_255_2_778
10
28.8687188
20
5.6885
11
29.3097188
21
2.5135
0
LINE
8
DEFAULT_255_2_778
10
29.3097188
20
2.5135
11
29.7508188
21
5.6885
0
LINE
8
DEFAULT_255_2_778
10
29.7508188
20
5.6885
11
30.1918188
21
2.5135
0
LINE
8
DEFAULT_255_2_778
10
30.1918188
20
2.5135
11
30.6329188
21
5.6885
0
LINE
8
DEFAULT_255_2_778
10
30.6329188
20
5.6885
11
31.0740188
21
2.5135
0
LINE
8
DEFAULT_255_2_778
10
31.0740188
20
2.5135
11
31.2211188
21
3.7835
0
LINE
8
DEFAULT_255_1_234
10
20.9039137
20
-0.6674567
11
20.9039137
21
-1.8425
0
LINE
8
DEFAULT_255_1_234
10
20.9039137
20
-1.8425
11
20.7545234
21
-1.8425
0
LINE
8
DEFAULT_255_1_234
10
20.7545234
20
-1.8425
11
20.7545234
21
-0.8521867
0
LINE
8
DEFAULT_255_1_234
10
20.7545234
20
-0.8521867
11
20.4549396
21
-0.9622215
0
LINE
8
DEFAULT_255_1_234
10
20.4549396
20
-0.9622215
11
20.4549396
21
-0.8272883
0
LINE
8
DEFAULT_255_1_234
10
20.4549396
20
-0.8272883
11
20.8806217
21
-0.6674567
0
LINE
8
DEFAULT_255_1_234
10
20.8806217
20
-0.6674567
11
20.9039137
21
-0.6674567
0
LINE
8
DEFAULT_255_1_234
10
21.5552877
20
-1.3067831
11
21.5552877
21
-1.1855038
0
LINE
8
DEFAULT_255_1_234
10
21.5552877
20
-1.1855038
11
21.6669289
21
-1.1855038
0
LINE
8
DEFAULT_255_1_234
10
21.4765767
20
-0.9798913
11
21.3279895
21
-0.9798913
0
LINE
8
DEFAULT_255_1_234
10
21.3175482
20
-1.5340812
11
21.4669386
21
-1.5340812
0
LINE
8
DEFAULT_255_1_234
10
21.6669289
20
-1.3067831
11
21.5552877
21
-1.3067831
0
ARC
8
DEFAULT_255_1_234
10
21.6640155
20
-0.8462287
40
0.3392876
50
270.4919872
51
281.8951556
0
ARC
8
DEFAULT_255_1_234
10
21.6881417
20
-0.9564298
40
0.2264817
50
281.6691735
51
301.2943132
0
ARC
8
DEFAULT_255_1_234
10
21.7051627
20
-0.9875696
40
0.1910381
50
301.7833094
51
311.7545298
0
ARC
8
DEFAULT_255_1_234
10
21.7143203
20
-0.9977252
40
0.1773635
50
311.7323931
51
354.2802411
0
ARC
8
DEFAULT_255_1_234
10
21.6416828
20
-0.9852278
40
0.2509385
50
353.0937916
51
0.1181479
0
ARC
8
DEFAULT_255_1_234
10
21.5955613
20
-0.9804614
40
0.2970898
50
359.1805295
51
15.0453146
0
ARC
8
DEFAULT_255_1_234
10
21.730145
20
-0.9412008
40
0.1569564
50
13.9577229
51
77.6713066
0
ARC
8
DEFAULT_255_1_234
10
21.6914979
20
-1.0797051
40
0.3006298
50
76.1116566
51
90.7026153
0
ARC
8
DEFAULT_255_1_234
10
21.6855817
20
-1.0523455
40
0.2732568
50
89.5324876
51
103.531937
0
ARC
8
DEFAULT_255_1_234
10
21.6655261
20
-0.9724116
40
0.1908508
50
103.2931773
51
133.5619022
0
ARC
8
DEFAULT_255_1_234
10
21.661075
20
-0.9664625
40
0.1834746
50
133.8349307
51
173.5344437
0
ARC
8
DEFAULT_255_1_234
10
21.7333793
20
-0.9792787
40
0.2568033
50
172.5096846
51
180.1366907
0
ARC
8
DEFAULT_255_1_234
10
21.6382687
20
-0.9758378
40
0.3103056
50
155.3484492
51
180.7484736
0
ARC
8
DEFAULT_255_1_234
10
21.6333776
20
-0.9787154
40
0.3070957
50
131.5744599
51
154.4798489
0
ARC
8
DEFAULT_255_1_234
10
21.6646923
20
-1.010369
40
0.3515643
50
96.9875458
51
131.9690667
0
ARC
8
DEFAULT_255_1_234
10
21.6866403
20
-1.1349364
40
0.4779224
50
89.8596053
51
97.7825159
0
ARC
8
DEFAULT_255_1_234
10
21.6914466
20
-1.1611384
40
0.5041361
50
78.3655447
51
90.4131539
0
ARC
8
DEFAULT_255_1_234
10
21.7272384
20
-0.9952113
40
0.3344039
50
56.6229102
51
78.638727
0
ARC
8
DEFAULT_255_1_234
10
21.7487328
20
-0.9576195
40
0.2912001
50
47.0253525
51
56.0854072
0
ARC
8
DEFAULT_255_1_234
10
21.7507108
20
-0.9536777
40
0.2869704
50
10.9208013
51
46.7778124
0
ARC
8
DEFAULT_255_1_234
10
21.6143174
20
-0.9852143
40
0.426899
50
359.6364486
51
11.6087304
0
ARC
8
DEFAULT_255_1_234
10
21.7978018
20
-0.9867248
40
0.243409
50
332.3549906
51
359.7179418
0
ARC
8
DEFAULT_255_1_234
10
21.732762
20
-0.9558858
40
0.3153459
50
325.2333722
51
332.8745602
0
ARC
8
DEFAULT_255_1_234
10
21.7480244
20
-0.9665172
40
0.2967456
50
292.9802137
51
325.2392345
0
ARC
8
DEFAULT_255_1_234
10
21.7205617
20
-0.9131137
40
0.3566604
50
292.5402179
51
293.6924929
0
ARC
8
DEFAULT_255_1_234
10
21.7598213
20
-1.5585909
40
0.3307468
50
57.6435486
51
72.8625112
0
ARC
8
DEFAULT_255_1_234
10
21.7952713
20
-1.5011451
40
0.2632492
50
36.7248896
51
57.4697979
0
ARC
8
DEFAULT_255_1_234
10
21.7941346
20
-1.499878
40
0.2634081
50
8.0545065
51
36.356114
0
ARC
8
DEFAULT_255_1_234
10
21.7078531
20
-1.5153826
40
0.3510261
50
359.8320645
51
8.5869982
0
ARC
8
DEFAULT_255_1_234
10
21.6703307
20
-1.5201899
40
0.3885653
50
343.9829931
51
0.5571613
0
ARC
8
DEFAULT_255_1_234
10
21.7589504
20
-1.5444562
40
0.2966924
50
311.6359546
51
343.7651759
0
ARC
8
DEFAULT_255_1_234
10
21.7211074
20
-1.5017898
40
0.3537231
50
279.7829875
51
311.6255694
0
ARC
8
DEFAULT_255_1_234
10
21.690985
20
-1.358072
40
0.5004971
50
269.7286406
51
280.3856417
0
ARC
8
DEFAULT_255_1_234
10
21.6847922
20
-1.3622004
40
0.4963778
50
256.6828919
51
270.4412052
0
ARC
8
DEFAULT_255_1_234
10
21.6509218
20
-1.5006606
40
0.3538406
50
229.4223008
51
256.8556159
0
ARC
8
DEFAULT_255_1_234
10
21.6094611
20
-1.5473264
40
0.2914296
50
181.818294
51
229.6455059
0
ARC
8
DEFAULT_255_1_234
10
21.7134567
20
-1.5342504
40
0.3959084
50
179.9755256
51
183.2323064
0
ARC
8
DEFAULT_255_1_234
10
21.6962313
20
-1.5362963
40
0.2293034
50
179.4465117
51
196.2869258
0
ARC
8
DEFAULT_255_1_234
10
21.6474721
20
-1.5496349
40
0.1787621
50
196.5661473
51
227.705904
0
ARC
8
DEFAULT_255_1_234
10
21.6638816
20
-1.5312845
40
0.2033784
50
227.7652068
51
257.8762805
0
ARC
8
DEFAULT_255_1_234
10
21.6863786
20
-1.4369844
40
0.3003081
50
257.4584385
51
270.426602
0
ARC
8
DEFAULT_255_1_234
10
21.6909352
20
-1.4080004
40
0.329292
50
269.5962073
51
280.8789248
0
ARC
8
DEFAULT_255_1_234
10
21.7138881
20
-1.5226315
40
0.2123908
50
280.6346389
51
299.8595945
0
ARC
8
DEFAULT_255_1_234
10
21.7329788
20
-1.5588788
40
0.171457
50
300.3576302
51
314.5517981
0
ARC
8
DEFAULT_255_1_234
10
21.7246848
20
-1.5528081
40
0.1816095
50
315.0728369
51
345.0431014
0
ARC
8
DEFAULT_255_1_234
10
21.6323662
20
-1.5259159
40
0.2777492
50
344.5986631
51
357.9269593
0
ARC
8
DEFAULT_255_1_234
10
21.5427989
20
-1.5197724
40
0.3674917
50
357.4748886
51
0.0231117
0
ARC
8
DEFAULT_255_1_234
10
21.6451098
20
-1.5173321
40
0.2651907
50
359.5047933
51
13.4239635
0
ARC
8
DEFAULT_255_1_234
10
21.7317741
20
-1.4951522
40
0.1757509
50
12.9498199
51
48.7551375
0
ARC
8
DEFAULT_255_1_234
10
21.7135475
20
-1.52006
40
0.2065134
50
49.5088623
51
72.1836453
0
ARC
8
DEFAULT_255_1_234
10
21.6777628
20
-1.6262709
40
0.3185836
50
71.9010081
51
84.3554254
0
ARC
8
DEFAULT_255_1_234
10
21.661626
20
-1.7623674
40
0.4556151
50
84.0193428
51
89.333121
0
LINE
8
DEFAULT_255_1_234
10
22.4500233
20
-1.2867037
11
22.3311536
21
-1.2561831
0
LINE
8
DEFAULT_255_1_234
10
22.3311536
20
-1.2561831
11
22.3905885
21
-0.6730789
0
LINE
8
DEFAULT_255_1_234
10
22.3905885
20
-0.6730789
11
22.9897562
21
-0.6730789
0
LINE
8
DEFAULT_255_1_234
10
22.9897562
20
-0.6730789
11
22.9897562
21
-0.8104216
0
LINE
8
DEFAULT_255_1_234
10
22.9897562
20
-0.8104216
11
22.5166868
21
-0.8104216
0
LINE
8
DEFAULT_255_1_234
10
22.5166868
20
-0.8104216
11
22.4813471
21
-1.1292816
0
LINE
8
DEFAULT_255_1_234
10
22.2893886
20
-1.5348844
11
22.429944
21
-1.5348844
0
LINE
8
DEFAULT_255_1_234
10
22.4893789
20
-1.2545768
11
22.4500233
21
-1.2867037
0
ARC
8
DEFAULT_255_1_234
10
22.6668255
20
-1.447277
40
0.3681349
50
93.7182161
51
120.2538958
0
ARC
8
DEFAULT_255_1_234
10
22.6762518
20
-1.5280606
40
0.449379
50
89.9660152
51
94.2496022
0
ARC
8
DEFAULT_255_1_234
10
22.6803252
20
-1.4691451
40
0.390482
50
73.8043271
51
90.5585896
0
ARC
8
DEFAULT_255_1_234
10
22.7038149
20
-1.3833398
40
0.3015334
50
41.3071453
51
73.5430202
0
ARC
8
DEFAULT_255_1_234
10
22.6621976
20
-1.4191676
40
0.3564457
50
13.5075983
51
41.2174222
0
ARC
8
DEFAULT_255_1_234
10
22.498018
20
-1.4621514
40
0.5261351
50
1.1331335
51
13.8829381
0
ARC
8
DEFAULT_255_1_234
10
22.3568549
20
-1.4697335
40
0.6674378
50
359.9919444
51
1.544251
0
ARC
8
DEFAULT_255_1_234
10
22.4845375
20
-1.473872
40
0.5397702
50
347.8572367
51
0.4293338
0
ARC
8
DEFAULT_255_1_234
10
22.6595693
20
-1.5135264
40
0.3603188
50
323.673004
51
348.1672506
0
ARC
8
DEFAULT_255_1_234
10
22.6890201
20
-1.5314832
40
0.3259678
50
316.8171152
51
323.1492751
0
ARC
8
DEFAULT_255_1_234
10
22.695139
20
-1.535154
40
0.3189975
50
281.8396411
51
316.5457803
0
ARC
8
DEFAULT_255_1_234
10
22.6575654
20
-1.3796238
40
0.4789527
50
269.5770101
51
282.4214771
0
ARC
8
DEFAULT_255_1_234
10
22.6504465
20
-1.4009875
40
0.45759
50
256.2427136
51
270.4486331
0
ARC
8
DEFAULT_255_1_234
10
22.6205368
20
-1.5209771
40
0.3339303
50
228.9023911
51
256.3314342
0
ARC
8
DEFAULT_255_1_234
10
22.61316
20
-1.5326254
40
0.32031
50
193.753695
51
228.5271154
0
ARC
8
DEFAULT_255_1_234
10
22.7369554
20
-1.49632
40
0.4492253
50
184.924711
51
194.497588
0
ARC
8
DEFAULT_255_1_234
10
22.7562121
20
-1.4927409
40
0.3289787
50
187.3600538
51
198.6732863
0
ARC
8
DEFAULT_255_1_234
10
22.6512415
20
-1.5291326
40
0.217884
50
198.4451669
51
217.794479
0
ARC
8
DEFAULT_255_1_234
10
22.621659
20
-1.5500915
40
0.1816698
50
218.2887171
51
228.5612368
0
ARC
8
DEFAULT_255_1_234
10
22.6314377
20
-1.5369037
40
0.1980329
50
228.9654866
51
258.1234728
0
ARC
8
DEFAULT_255_1_234
10
22.6520087
20
-1.4488167
40
0.2884748
50
257.7258293
51
270.401361
0
ARC
8
DEFAULT_255_1_234
10
22.6564974
20
-1.4933179
40
0.2439788
50
269.4204404
51
286.4209037
0
ARC
8
DEFAULT_255_1_234
10
22.6713461
20
-1.5472343
40
0.1880666
50
286.7251356
51
320.600362
0
ARC
8
DEFAULT_255_1_234
10
22.6330286
20
-1.5161405
40
0.2374121
50
320.6712579
51
344.5441685
0
ARC
8
DEFAULT_255_1_234
10
22.5173612
20
-1.4821955
40
0.3579479
50
344.2412205
51
356.7357071
0
ARC
8
DEFAULT_255_1_234
10
22.3924761
20
-1.4718556
40
0.4832297
50
356.3548756
51
0.0500261
0
ARC
8
DEFAULT_255_1_234
10
22.526127
20
-1.468735
40
0.3495889
50
359.5576869
51
12.953486
0
ARC
8
DEFAULT_255_1_234
10
22.6316167
20
-1.4431566
40
0.2410532
50
12.6490276
51
41.6081334
0
ARC
8
DEFAULT_255_1_234
10
22.6546538
20
-1.4235679
40
0.2108218
50
41.7850273
51
85.9892764
0
ARC
8
DEFAULT_255_1_234
10
22.6423275
20
-1.5048538
40
0.2928454
50
84.6957577
51
90.0676183
0
ARC
8
DEFAULT_255_1_234
10
22.6399759
20
-1.5717284
40
0.3597255
50
89.6804936
51
99.1614436
0
ARC
8
DEFAULT_255_1_234
10
22.619439
20
-1.4489869
40
0.235281
50
98.9830931
51
113.8908934
0
ARC
8
DEFAULT_255_1_234
10
22.59648
20
-1.3948413
40
0.176479
50
114.1950727
51
127.3641004
0
LINE
8
DEFAULT_255_1_234
10
23.9635119
20
13.5753792
11
23.9635119
21
13.4541
0
LINE
8
DEFAULT_255_1_234
10
23.9635119
20
13.4541
11
23.197284
21
13.4541
0
LINE
8
DEFAULT_255_1_234
10
23.197284
20
13.4541
11
23.197284
21
13.5609221
0
LINE
8
DEFAULT_255_1_234
10
23.197284
20
13.5609221
11
23.6020836
21
14.0106995
0
LINE
8
DEFAULT_255_1_234
10
23.3233823
20
14.2789595
11
23.1747952
21
14.2789595
0
LINE
8
DEFAULT_255_1_234
10
23.6896296
20
13.9151218
11
23.3763918
21
13.5753792
0
LINE
8
DEFAULT_255_1_234
10
23.3763918
20
13.5753792
11
23.9635119
21
13.5753792
0
ARC
8
DEFAULT_255_1_234
10
22.253067
20
15.2036527
40
1.8008286
50
318.5132453
51
320.7828378
0
ARC
8
DEFAULT_255_1_234
10
22.7817644
20
14.7733426
40
1.1191493
50
320.7372736
51
323.9737074
0
ARC
8
DEFAULT_255_1_234
10
23.1737501
20
14.4893361
40
0.6350923
50
323.8961724
51
328.6421089
0
ARC
8
DEFAULT_255_1_234
10
23.3784096
20
14.3631031
40
0.3946393
50
328.8299013
51
331.789948
0
ARC
8
DEFAULT_255_1_234
10
23.4781274
20
14.3116509
40
0.2824501
50
331.4255242
51
352.9364833
0
ARC
8
DEFAULT_255_1_234
10
23.4917775
20
14.3085976
40
0.2685315
50
353.2248685
51
0.0169286
0
ARC
8
DEFAULT_255_1_234
10
23.5127652
20
14.310895
40
0.2475536
50
359.4866256
51
15.9339782
0
ARC
8
DEFAULT_255_1_234
10
23.5634637
20
14.3245286
40
0.1950618
50
16.1714718
51
43.5284424
0
ARC
8
DEFAULT_255_1_234
10
23.5711946
20
14.3322573
40
0.184134
50
43.4415429
51
83.1661404
0
ARC
8
DEFAULT_255_1_234
10
23.5577864
20
14.2585771
40
0.258926
50
82.160215
51
90.1505798
0
ARC
8
DEFAULT_255_1_234
10
23.5546291
20
14.2048865
40
0.3126255
50
89.5460705
51
102.5418777
0
ARC
8
DEFAULT_255_1_234
10
23.5303377
20
14.3079665
40
0.2067346
50
102.1739365
51
129.2061916
0
ARC
8
DEFAULT_255_1_234
10
23.5224449
20
14.3204094
40
0.1921118
50
129.7279328
51
135.7542026
0
ARC
8
DEFAULT_255_1_234
10
23.5345977
20
14.3107045
40
0.2075944
50
136.175737
51
166.3674722
0
ARC
8
DEFAULT_255_1_234
10
23.6352896
20
14.2837182
40
0.3118201
50
165.9092917
51
178.8683903
0
ARC
8
DEFAULT_255_1_234
10
23.7217757
20
14.2790179
40
0.3983935
50
178.438168
51
180.0083905
0
ARC
8
DEFAULT_255_1_234
10
23.5816359
20
14.2829231
40
0.4068601
50
163.2878735
51
180.5581814
0
ARC
8
DEFAULT_255_1_234
10
23.5014621
20
14.304984
40
0.3237344
50
133.454115
51
162.9470031
0
ARC
8
DEFAULT_255_1_234
10
23.5193162
20
14.286
40
0.349795
50
100.7869394
51
133.4384016
0
ARC
8
DEFAULT_255_1_234
10
23.5540934
20
14.1311319
40
0.5084616
50
89.6605301
51
101.3704185
0
ARC
8
DEFAULT_255_1_234
10
23.5607273
20
14.1372496
40
0.502348
50
78.2171172
51
90.4130393
0
ARC
8
DEFAULT_255_1_234
10
23.5962351
20
14.2996637
40
0.3361092
50
55.9268222
51
78.4888551
0
ARC
8
DEFAULT_255_1_234
10
23.6158791
20
14.3335324
40
0.2970617
50
47.9292255
51
55.4054003
0
ARC
8
DEFAULT_255_1_234
10
23.6260352
20
14.3438502
40
0.2825983
50
4.3347696
51
48.0560701
0
ARC
8
DEFAULT_255_1_234
10
23.5164745
20
14.3268601
40
0.393225
50
359.925209
51
5.5967654
0
ARC
8
DEFAULT_255_1_234
10
23.5593637
20
14.3324816
40
0.3503892
50
337.8914096
51
358.9967724
0
ARC
8
DEFAULT_255_1_234
10
23.2880049
20
14.4371706
40
0.6412172
50
326.9135351
51
338.3505194
0
ARC
8
DEFAULT_255_1_234
10
22.8894353
20
14.6926284
40
1.1146189
50
319.6472867
51
327.095818
0
ARC
8
DEFAULT_255_1_234
10
22.5061356
20
15.0088
40
1.6114559
50
317.2586784
51
319.9046139
0
LINE
8
DEFAULT_255_1_234
10
24.7482127
20
14.6235211
11
24.7482127
21
13.846852
0
LINE
8
DEFAULT_255_1_234
10
24.7482127
20
13.846852
11
24.9104538
21
13.846852
0
LINE
8
DEFAULT_255_1_234
10
24.9104538
20
13.846852
11
24.9104538
21
13.7255728
0
LINE
8
DEFAULT_255_1_234
10
24.9104538
20
13.7255728
11
24.7482127
21
13.7255728
0
LINE
8
DEFAULT_255_1_234
10
24.7482127
20
13.7255728
11
24.7482127
21
13.4541
0
LINE
8
DEFAULT_255_1_234
10
24.7482127
20
13.4541
11
24.5988224
21
13.4541
0
LINE
8
DEFAULT_255_1_234
10
24.5988224
20
13.4541
11
24.5988224
21
13.7255728
0
LINE
8
DEFAULT_255_1_234
10
24.5988224
20
13.7255728
11
24.0663181
21
13.7255728
0
LINE
8
DEFAULT_255_1_234
10
24.0663181
20
13.7255728
11
24.0663181
21
13.8131187
0
LINE
8
DEFAULT_255_1_234
10
24.0663181
20
13.8131187
11
24.5899875
21
14.6235211
0
LINE
8
DEFAULT_255_1_234
10
24.5899875
20
14.6235211
11
24.7482127
21
14.6235211
0
LINE
8
DEFAULT_255_1_234
10
24.5811525
20
14.3881912
11
24.2349846
21
13.846852
0
LINE
8
DEFAULT_255_1_234
10
24.2349846
20
13.846852
11
24.5988224
21
13.846852
0
LINE
8
DEFAULT_255_1_234
10
24.5988224
20
13.846852
11
24.5988224
21
14.4203181
0
LINE
8
DEFAULT_255_1_234
10
24.5988224
20
14.4203181
11
24.5811525
21
14.3881912
0
ENDSEC
0
EOF