0
SECTION
2
HEADER
9
$MEASUREMENT
70
1
0
ENDSEC
0
SECTION
2
TABLES
0
TABLE
2
LTYPE
0
LTYPE
72
65
70
64
2
CONTINUOUS
3
______
73
0
40
0
0
ENDTAB
0
TABLE
2
LAYER
0
LAYER
2
DEFAULT_255_2_778
70
0
62
255
6
CONTINUOUS
0
LAYER
2
DEFAULT_255_1_234
70
0
62
255
6
CONTINUOUS
0
ENDTAB
0
ENDSEC
0
SECTION
2
ENTITIES
0
LINE
8
DEFAULT_255_2_778
10
18.7192335
20
2.5135499
11
8.1359335
21
2.5135499
0
LINE
8
DEFAULT_255_2_778
10
8.1359335
20
2.5135499
11
8.1359335
21
10.4510499
0
LINE
8
DEFAULT_255_2_778
10
8.1359335
20
10.4510499
11
18.7192335
21
10.4510499
0
LINE
8
DEFAULT_255_2_778
10
18.7192335
20
10.4510499
11
18.7192335
21
2.5135499
0
LINE
8
DEFAULT_255_2_778
10
13.4276
20
2.5135499
11
13.4276
21
10.4510499
0
LINE
8
DEFAULT_255_2_778
10
10.7818
20
2.5135499
11
10.7818
21
10.4510499
0
LINE
8
DEFAULT_255_2_778
10
10.2526333
20
8.5989416
11
11.3109333
21
8.5989416
0
LINE
8
DEFAULT_255_2_778
10
11.3109333
20
8.5989416
11
10.7818333
21
10.4510416
0
LINE
8
DEFAULT_255_2_778
10
10.7818333
20
10.4510416
11
10.2526333
21
8.5989416
0
LINE
8
DEFAULT_255_2_778
10
8.1358834
20
3.3073
11
5.4900834
21
3.3073
0
LINE
8
DEFAULT_255_2_778
10
8.1358834
20
4.8948
11
5.4900834
21
4.8948
0
LINE
8
DEFAULT_255_2_778
10
5.4901
20
2.5135166
11
5.4901
21
5.1593166
0
ARC
8
DEFAULT_255_2_778
10
5.4915705
20
5.8193295
40
0.6599728
50
269.8759594
51
0.1240406
0
ARC
8
DEFAULT_255_2_778
10
5.4886345
20
5.8193508
40
0.6599942
50
179.8778094
51
270.1308423
0
ARC
8
DEFAULT_255_2_778
10
5.4886557
20
5.8222443
40
0.6600157
50
89.871003
51
180.128997
0
ARC
8
DEFAULT_255_2_778
10
5.491549
20
5.8222655
40
0.6599943
50
359.8691577
51
90.1221758
0
LINE
8
DEFAULT_255_2_778
10
6.1515417
20
5.8207583
11
6.1515417
21
5.8207583
0
ARC
8
DEFAULT_255_2_778
10
16.0760335
20
6.4793198
40
1.3202532
50
328.7968675
51
0.1300552
0
ARC
8
DEFAULT_255_2_778
10
16.0768931
20
6.4788864
40
1.3192936
50
277.5665172
51
328.7936255
0
ARC
8
DEFAULT_255_2_778
10
16.0737877
20
6.5056074
40
1.3461909
50
269.9827905
51
277.547783
0
ARC
8
DEFAULT_255_2_778
10
16.0703865
20
6.4796665
40
1.3202532
50
238.7968675
51
270.1300552
0
ARC
8
DEFAULT_255_2_778
10
16.0699532
20
6.4788069
40
1.3192936
50
187.5665172
51
238.7936255
0
ARC
8
DEFAULT_255_2_778
10
16.0966742
20
6.4819123
40
1.3461909
50
179.9827905
51
187.547783
0
ARC
8
DEFAULT_255_2_778
10
16.0707332
20
6.4853135
40
1.3202532
50
148.7968675
51
180.1300552
0
ARC
8
DEFAULT_255_2_778
10
16.0698736
20
6.4857468
40
1.3192936
50
97.5665172
51
148.7936255
0
ARC
8
DEFAULT_255_2_778
10
16.072979
20
6.4590258
40
1.3461909
50
89.9827905
51
97.547783
0
ARC
8
DEFAULT_255_2_778
10
16.0763802
20
6.4849668
40
1.3202532
50
58.7968675
51
90.1300552
0
ARC
8
DEFAULT_255_2_778
10
16.0768136
20
6.4858264
40
1.3192936
50
7.5665172
51
58.7936255
0
ARC
8
DEFAULT_255_2_778
10
16.0500926
20
6.482721
40
1.3461909
50
359.9827905
51
7.547783
0
LINE
8
DEFAULT_255_2_778
10
17.3962834
20
6.4823166
11
17.3962834
21
6.4823166
0
LINE
8
DEFAULT_255_2_778
10
14.2213167
20
6.4822416
11
16.0734167
21
8.3343416
0
LINE
8
DEFAULT_255_2_778
10
16.0734167
20
8.3343416
11
17.9255167
21
6.4822416
0
LINE
8
DEFAULT_255_2_778
10
18.7193
20
2.513525
11
21.8943
21
2.513525
0
LINE
8
DEFAULT_255_2_778
10
21.8943
20
2.513525
11
21.8943
21
4.894725
0
LINE
8
DEFAULT_255_2_778
10
21.8943
20
4.894725
11
21.1005
21
4.894725
0
LINE
8
DEFAULT_255_2_778
10
21.1005
20
4.894725
11
20.836
21
4.101025
0
LINE
8
DEFAULT_255_2_778
10
20.836
20
4.101025
11
20.5714
21
4.894725
0
LINE
8
DEFAULT_255_2_778
10
20.5714
20
4.894725
11
20.0422
21
4.894725
0
LINE
8
DEFAULT_255_2_778
10
20.0422
20
4.894725
11
19.7776
21
4.101025
0
LINE
8
DEFAULT_255_2_778
10
19.7776
20
4.101025
11
19.513
21
4.894725
0
LINE
8
DEFAULT_255_2_778
10
19.513
20
4.894725
11
18.7193
21
4.894725
0
LINE
8
DEFAULT_255_2_778
10
18.7193
20
4.894725
11
18.7193
21
2.513525
0
LINE
8
DEFAULT_255_2_778
10
20.3068
20
5.4239667
11
20.3068
21
6.4822667
0
LINE
8
DEFAULT_255_2_778
10
16.0734
20
8.3343666
11
16.0734
21
15.7426666
0
LINE
8
DEFAULT_255_2_778
10
16.0734
20
5.1593499
11
16.0734
21
-2.7781501
0
LINE
8
DEFAULT_255_1_234
10
13.5607137
20
-0.6674567
11
13.5607137
21
-1.8425
0
LINE
8
DEFAULT_255_1_234
10
13.5607137
20
-1.8425
11
13.4113234
21
-1.8425
0
LINE
8
DEFAULT_255_1_234
10
13.4113234
20
-1.8425
11
13.4113234
21
-0.8521867
0
LINE
8
DEFAULT_255_1_234
10
13.4113234
20
-0.8521867
11
13.1117396
21
-0.9622215
0
LINE
8
DEFAULT_255_1_234
10
13.1117396
20
-0.9622215
11
13.1117396
21
-0.8272883
0
LINE
8
DEFAULT_255_1_234
10
13.1117396
20
-0.8272883
11
13.5374217
21
-0.6674567
0
LINE
8
DEFAULT_255_1_234
10
13.5374217
20
-0.6674567
11
13.5607137
21
-0.6674567
0
LINE
8
DEFAULT_255_1_234
10
13.8303119
20
14.1548792
11
13.8303119
21
14.0336
0
LINE
8
DEFAULT_255_1_234
10
13.8303119
20
14.0336
11
13.064084
21
14.0336
0
LINE
8
DEFAULT_255_1_234
10
13.064084
20
14.0336
11
13.064084
21
14.1404221
0
LINE
8
DEFAULT_255_1_234
10
13.064084
20
14.1404221
11
13.4688836
21
14.5901995
0
LINE
8
DEFAULT_255_1_234
10
13.1901823
20
14.8584595
11
13.0415952
21
14.8584595
0
LINE
8
DEFAULT_255_1_234
10
13.5564296
20
14.4946218
11
13.2431918
21
14.1548792
0
LINE
8
DEFAULT_255_1_234
10
13.2431918
20
14.1548792
11
13.8303119
21
14.1548792
0
ARC
8
DEFAULT_255_1_234
10
12.119867
20
15.7831527
40
1.8008286
50
318.5132453
51
320.7828378
0
ARC
8
DEFAULT_255_1_234
10
12.6485644
20
15.3528426
40
1.1191493
50
320.7372736
51
323.9737074
0
ARC
8
DEFAULT_255_1_234
10
13.0405501
20
15.0688361
40
0.6350923
50
323.8961724
51
328.6421089
0
ARC
8
DEFAULT_255_1_234
10
13.2452096
20
14.9426031
40
0.3946393
50
328.8299013
51
331.789948
0
ARC
8
DEFAULT_255_1_234
10
13.3449274
20
14.8911509
40
0.2824501
50
331.4255242
51
352.9364833
0
ARC
8
DEFAULT_255_1_234
10
13.3585775
20
14.8880976
40
0.2685315
50
353.2248685
51
0.0169286
0
ARC
8
DEFAULT_255_1_234
10
13.3795652
20
14.890395
40
0.2475536
50
359.4866256
51
15.9339782
0
ARC
8
DEFAULT_255_1_234
10
13.4302637
20
14.9040286
40
0.1950618
50
16.1714718
51
43.5284424
0
ARC
8
DEFAULT_255_1_234
10
13.4379946
20
14.9117573
40
0.184134
50
43.4415429
51
83.1661404
0
ARC
8
DEFAULT_255_1_234
10
13.4245864
20
14.8380771
40
0.258926
50
82.160215
51
90.1505798
0
ARC
8
DEFAULT_255_1_234
10
13.4214291
20
14.7843865
40
0.3126255
50
89.5460705
51
102.5418777
0
ARC
8
DEFAULT_255_1_234
10
13.3971377
20
14.8874665
40
0.2067346
50
102.1739365
51
129.2061916
0
ARC
8
DEFAULT_255_1_234
10
13.3892449
20
14.8999094
40
0.1921118
50
129.7279328
51
135.7542026
0
ARC
8
DEFAULT_255_1_234
10
13.4013977
20
14.8902045
40
0.2075944
50
136.175737
51
166.3674722
0
ARC
8
DEFAULT_255_1_234
10
13.5020896
20
14.8632182
40
0.3118201
50
165.9092917
51
178.8683903
0
ARC
8
DEFAULT_255_1_234
10
13.5885757
20
14.8585179
40
0.3983935
50
178.438168
51
180.0083905
0
ARC
8
DEFAULT_255_1_234
10
13.4484359
20
14.8624231
40
0.4068601
50
163.2878735
51
180.5581814
0
ARC
8
DEFAULT_255_1_234
10
13.3682621
20
14.884484
40
0.3237344
50
133.454115
51
162.9470031
0
ARC
8
DEFAULT_255_1_234
10
13.3861162
20
14.8655
40
0.349795
50
100.7869394
51
133.4384016
0
ARC
8
DEFAULT_255_1_234
10
13.4208934
20
14.7106319
40
0.5084616
50
89.6605301
51
101.3704185
0
ARC
8
DEFAULT_255_1_234
10
13.4275273
20
14.7167496
40
0.502348
50
78.2171172
51
90.4130393
0
ARC
8
DEFAULT_255_1_234
10
13.4630351
20
14.8791637
40
0.3361092
50
55.9268222
51
78.4888551
0
ARC
8
DEFAULT_255_1_234
10
13.4826791
20
14.9130324
40
0.2970617
50
47.9292255
51
55.4054003
0
ARC
8
DEFAULT_255_1_234
10
13.4928352
20
14.9233502
40
0.2825983
50
4.3347696
51
48.0560701
0
ARC
8
DEFAULT_255_1_234
10
13.3832745
20
14.9063601
40
0.393225
50
359.925209
51
5.5967654
0
ARC
8
DEFAULT_255_1_234
10
13.4261637
20
14.9119816
40
0.3503892
50
337.8914096
51
358.9967724
0
ARC
8
DEFAULT_255_1_234
10
13.1548049
20
15.0166706
40
0.6412172
50
326.9135351
51
338.3505194
0
ARC
8
DEFAULT_255_1_234
10
12.7562353
20
15.2721284
40
1.1146189
50
319.6472867
51
327.095818
0
ARC
8
DEFAULT_255_1_234
10
12.3729356
20
15.5883
40
1.6114559
50
317.2586784
51
319.9046139
0
ENDSEC
0
EOF