0
SECTION
2
HEADER
9
$MEASUREMENT
70
1
0
ENDSEC
0
SECTION
2
TABLES
0
TABLE
2
LTYPE
0
LTYPE
72
65
70
64
2
CONTINUOUS
3
______
73
0
40
0
0
ENDTAB
0
TABLE
2
LAYER
0
LAYER
2
DEFAULT_255_2_778
70
0
62
255
6
CONTINUOUS
0
LAYER
2
DEFAULT_255_1_234
70
0
62
255
6
CONTINUOUS
0
ENDTAB
0
ENDSEC
0
SECTION
2
ENTITIES
0
LINE
8
DEFAULT_255_2_778
10
18.6535335
20
2.5135499
11
8.0702335
21
2.5135499
0
LINE
8
DEFAULT_255_2_778
10
8.0702335
20
2.5135499
11
8.0702335
21
10.4510499
0
LINE
8
DEFAULT_255_2_778
10
8.0702335
20
10.4510499
11
18.6535335
21
10.4510499
0
LINE
8
DEFAULT_255_2_778
10
18.6535335
20
10.4510499
11
18.6535335
21
2.5135499
0
LINE
8
DEFAULT_255_2_778
10
13.3619
20
2.5135499
11
13.3619
21
10.4510499
0
LINE
8
DEFAULT_255_2_778
10
10.716
20
2.5135499
11
10.716
21
10.4510499
0
LINE
8
DEFAULT_255_2_778
10
10.1868333
20
8.5989416
11
11.2451333
21
8.5989416
0
LINE
8
DEFAULT_255_2_778
10
11.2451333
20
8.5989416
11
10.7160333
21
10.4510416
0
LINE
8
DEFAULT_255_2_778
10
10.7160333
20
10.4510416
11
10.1868333
21
8.5989416
0
ARC
8
DEFAULT_255_2_778
10
16.0103335
20
6.4793198
40
1.3202532
50
328.7968675
51
0.1300552
0
ARC
8
DEFAULT_255_2_778
10
16.0111931
20
6.4788864
40
1.3192936
50
277.5665172
51
328.7936255
0
ARC
8
DEFAULT_255_2_778
10
16.0080877
20
6.5056074
40
1.3461909
50
269.9827905
51
277.547783
0
ARC
8
DEFAULT_255_2_778
10
16.0046865
20
6.4796665
40
1.3202532
50
238.7968675
51
270.1300552
0
ARC
8
DEFAULT_255_2_778
10
16.0042532
20
6.4788069
40
1.3192936
50
187.5665172
51
238.7936255
0
ARC
8
DEFAULT_255_2_778
10
16.0309742
20
6.4819123
40
1.3461909
50
179.9827905
51
187.547783
0
ARC
8
DEFAULT_255_2_778
10
16.0050332
20
6.4853135
40
1.3202532
50
148.7968675
51
180.1300552
0
ARC
8
DEFAULT_255_2_778
10
16.0041736
20
6.4857468
40
1.3192936
50
97.5665172
51
148.7936255
0
ARC
8
DEFAULT_255_2_778
10
16.007279
20
6.4590258
40
1.3461909
50
89.9827905
51
97.547783
0
ARC
8
DEFAULT_255_2_778
10
16.0106802
20
6.4849668
40
1.3202532
50
58.7968675
51
90.1300552
0
ARC
8
DEFAULT_255_2_778
10
16.0111136
20
6.4858264
40
1.3192936
50
7.5665172
51
58.7936255
0
ARC
8
DEFAULT_255_2_778
10
15.9843926
20
6.482721
40
1.3461909
50
359.9827905
51
7.547783
0
LINE
8
DEFAULT_255_2_778
10
17.3305834
20
6.4823166
11
17.3305834
21
6.4823166
0
LINE
8
DEFAULT_255_2_778
10
14.1556167
20
6.4822416
11
16.0077167
21
8.3343416
0
LINE
8
DEFAULT_255_2_778
10
16.0077167
20
8.3343416
11
17.8598167
21
6.4822416
0
LINE
8
DEFAULT_255_2_778
10
16.0077
20
8.3343666
11
16.0077
21
15.7426666
0
LINE
8
DEFAULT_255_2_778
10
16.0077
20
5.1593499
11
16.0077
21
-2.7781501
0
LINE
8
DEFAULT_255_2_778
10
18.6534834
20
4.101
11
18.8738834
21
2.5135
0
LINE
8
DEFAULT_255_2_778
10
18.8738834
20
2.5135
11
19.3149834
21
5.6885
0
LINE
8
DEFAULT_255_2_778
10
19.3149834
20
5.6885
11
19.7559834
21
2.5135
0
LINE
8
DEFAULT_255_2_778
10
19.7559834
20
2.5135
11
20.1967834
21
5.6885
0
LINE
8
DEFAULT_255_2_778
10
20.1967834
20
5.6885
11
20.6378834
21
2.5135
0
LINE
8
DEFAULT_255_2_778
10
20.6378834
20
2.5135
11
21.0788834
21
5.6885
0
LINE
8
DEFAULT_255_2_778
10
21.0788834
20
5.6885
11
21.2992834
21
4.101
0
LINE
8
DEFAULT_255_2_778
10
2.7784834
20
7.8052
11
5.4242834
21
7.8052
0
LINE
8
DEFAULT_255_2_778
10
5.4243417
20
9.1281166
11
5.4243417
21
6.4823166
0
LINE
8
DEFAULT_255_2_778
10
5.4243417
20
6.4823166
11
6.7472417
21
7.8052166
0
LINE
8
DEFAULT_255_2_778
10
6.7472417
20
7.8052166
11
5.4243417
21
9.1281166
0
LINE
8
DEFAULT_255_2_778
10
6.7472417
20
7.8052
11
8.0701417
21
7.8052
0
LINE
8
DEFAULT_255_1_234
10
13.4931137
20
-0.6674567
11
13.4931137
21
-1.8425
0
LINE
8
DEFAULT_255_1_234
10
13.4931137
20
-1.8425
11
13.3437234
21
-1.8425
0
LINE
8
DEFAULT_255_1_234
10
13.3437234
20
-1.8425
11
13.3437234
21
-0.8521867
0
LINE
8
DEFAULT_255_1_234
10
13.3437234
20
-0.8521867
11
13.0441396
21
-0.9622215
0
LINE
8
DEFAULT_255_1_234
10
13.0441396
20
-0.9622215
11
13.0441396
21
-0.8272883
0
LINE
8
DEFAULT_255_1_234
10
13.0441396
20
-0.8272883
11
13.4698217
21
-0.6674567
0
LINE
8
DEFAULT_255_1_234
10
13.4698217
20
-0.6674567
11
13.4931137
21
-0.6674567
0
LINE
8
DEFAULT_255_1_234
10
13.7627119
20
13.5753792
11
13.7627119
21
13.4541
0
LINE
8
DEFAULT_255_1_234
10
13.7627119
20
13.4541
11
12.996484
21
13.4541
0
LINE
8
DEFAULT_255_1_234
10
12.996484
20
13.4541
11
12.996484
21
13.5609221
0
LINE
8
DEFAULT_255_1_234
10
12.996484
20
13.5609221
11
13.4012836
21
14.0106995
0
LINE
8
DEFAULT_255_1_234
10
13.1225823
20
14.2789595
11
12.9739952
21
14.2789595
0
LINE
8
DEFAULT_255_1_234
10
13.4888296
20
13.9151218
11
13.1755918
21
13.5753792
0
LINE
8
DEFAULT_255_1_234
10
13.1755918
20
13.5753792
11
13.7627119
21
13.5753792
0
ARC
8
DEFAULT_255_1_234
10
12.052267
20
15.2036527
40
1.8008286
50
318.5132453
51
320.7828378
0
ARC
8
DEFAULT_255_1_234
10
12.5809644
20
14.7733426
40
1.1191493
50
320.7372736
51
323.9737074
0
ARC
8
DEFAULT_255_1_234
10
12.9729501
20
14.4893361
40
0.6350923
50
323.8961724
51
328.6421089
0
ARC
8
DEFAULT_255_1_234
10
13.1776096
20
14.3631031
40
0.3946393
50
328.8299013
51
331.789948
0
ARC
8
DEFAULT_255_1_234
10
13.2773274
20
14.3116509
40
0.2824501
50
331.4255242
51
352.9364833
0
ARC
8
DEFAULT_255_1_234
10
13.2909775
20
14.3085976
40
0.2685315
50
353.2248685
51
0.0169286
0
ARC
8
DEFAULT_255_1_234
10
13.3119652
20
14.310895
40
0.2475536
50
359.4866256
51
15.9339782
0
ARC
8
DEFAULT_255_1_234
10
13.3626637
20
14.3245286
40
0.1950618
50
16.1714718
51
43.5284424
0
ARC
8
DEFAULT_255_1_234
10
13.3703946
20
14.3322573
40
0.184134
50
43.4415429
51
83.1661404
0
ARC
8
DEFAULT_255_1_234
10
13.3569864
20
14.2585771
40
0.258926
50
82.160215
51
90.1505798
0
ARC
8
DEFAULT_255_1_234
10
13.3538291
20
14.2048865
40
0.3126255
50
89.5460705
51
102.5418777
0
ARC
8
DEFAULT_255_1_234
10
13.3295377
20
14.3079665
40
0.2067346
50
102.1739365
51
129.2061916
0
ARC
8
DEFAULT_255_1_234
10
13.3216449
20
14.3204094
40
0.1921118
50
129.7279328
51
135.7542026
0
ARC
8
DEFAULT_255_1_234
10
13.3337977
20
14.3107045
40
0.2075944
50
136.175737
51
166.3674722
0
ARC
8
DEFAULT_255_1_234
10
13.4344896
20
14.2837182
40
0.3118201
50
165.9092917
51
178.8683903
0
ARC
8
DEFAULT_255_1_234
10
13.5209757
20
14.2790179
40
0.3983935
50
178.438168
51
180.0083905
0
ARC
8
DEFAULT_255_1_234
10
13.3808359
20
14.2829231
40
0.4068601
50
163.2878735
51
180.5581814
0
ARC
8
DEFAULT_255_1_234
10
13.3006621
20
14.304984
40
0.3237344
50
133.454115
51
162.9470031
0
ARC
8
DEFAULT_255_1_234
10
13.3185162
20
14.286
40
0.349795
50
100.7869394
51
133.4384016
0
ARC
8
DEFAULT_255_1_234
10
13.3532934
20
14.1311319
40
0.5084616
50
89.6605301
51
101.3704185
0
ARC
8
DEFAULT_255_1_234
10
13.3599273
20
14.1372496
40
0.502348
50
78.2171172
51
90.4130393
0
ARC
8
DEFAULT_255_1_234
10
13.3954351
20
14.2996637
40
0.3361092
50
55.9268222
51
78.4888551
0
ARC
8
DEFAULT_255_1_234
10
13.4150791
20
14.3335324
40
0.2970617
50
47.9292255
51
55.4054003
0
ARC
8
DEFAULT_255_1_234
10
13.4252352
20
14.3438502
40
0.2825983
50
4.3347696
51
48.0560701
0
ARC
8
DEFAULT_255_1_234
10
13.3156745
20
14.3268601
40
0.393225
50
359.925209
51
5.5967654
0
ARC
8
DEFAULT_255_1_234
10
13.3585637
20
14.3324816
40
0.3503892
50
337.8914096
51
358.9967724
0
ARC
8
DEFAULT_255_1_234
10
13.0872049
20
14.4371706
40
0.6412172
50
326.9135351
51
338.3505194
0
ARC
8
DEFAULT_255_1_234
10
12.6886353
20
14.6926284
40
1.1146189
50
319.6472867
51
327.095818
0
ARC
8
DEFAULT_255_1_234
10
12.3053356
20
15.0088
40
1.6114559
50
317.2586784
51
319.9046139
0
LINE
8
DEFAULT_255_1_234
10
4.5472137
20
9.9172433
11
4.5472137
21
8.7422
0
LINE
8
DEFAULT_255_1_234
10
4.5472137
20
8.7422
11
4.3978234
21
8.7422
0
LINE
8
DEFAULT_255_1_234
10
4.3978234
20
8.7422
11
4.3978234
21
9.7325133
0
LINE
8
DEFAULT_255_1_234
10
4.3978234
20
9.7325133
11
4.0982396
21
9.6224785
0
LINE
8
DEFAULT_255_1_234
10
4.0982396
20
9.6224785
11
4.0982396
21
9.7574117
0
LINE
8
DEFAULT_255_1_234
10
4.0982396
20
9.7574117
11
4.5239217
21
9.9172433
0
LINE
8
DEFAULT_255_1_234
10
4.5239217
20
9.9172433
11
4.5472137
21
9.9172433
0
LINE
8
DEFAULT_255_1_234
10
5.7487618
20
8.8634792
11
5.7487618
21
8.7422
0
LINE
8
DEFAULT_255_1_234
10
5.7487618
20
8.7422
11
4.9825339
21
8.7422
0
LINE
8
DEFAULT_255_1_234
10
4.9825339
20
8.7422
11
4.9825339
21
8.8490221
0
LINE
8
DEFAULT_255_1_234
10
4.9825339
20
8.8490221
11
5.3873335
21
9.2987995
0
LINE
8
DEFAULT_255_1_234
10
5.1086322
20
9.5670595
11
4.9600451
21
9.5670595
0
LINE
8
DEFAULT_255_1_234
10
5.4748795
20
9.2032218
11
5.1616417
21
8.8634792
0
LINE
8
DEFAULT_255_1_234
10
5.1616417
20
8.8634792
11
5.7487618
21
8.8634792
0
ARC
8
DEFAULT_255_1_234
10
4.0383169
20
10.4917527
40
1.8008286
50
318.5132453
51
320.7828378
0
ARC
8
DEFAULT_255_1_234
10
4.5670143
20
10.0614426
40
1.1191493
50
320.7372736
51
323.9737074
0
ARC
8
DEFAULT_255_1_234
10
4.959
20
9.7774361
40
0.6350923
50
323.8961724
51
328.6421089
0
ARC
8
DEFAULT_255_1_234
10
5.1636595
20
9.6512031
40
0.3946393
50
328.8299013
51
331.789948
0
ARC
8
DEFAULT_255_1_234
10
5.2633774
20
9.5997509
40
0.2824501
50
331.4255242
51
352.9364833
0
ARC
8
DEFAULT_255_1_234
10
5.2770274
20
9.5966976
40
0.2685315
50
353.2248685
51
0.0169286
0
ARC
8
DEFAULT_255_1_234
10
5.2980151
20
9.598995
40
0.2475536
50
359.4866256
51
15.9339782
0
ARC
8
DEFAULT_255_1_234
10
5.3487136
20
9.6126286
40
0.1950618
50
16.1714718
51
43.5284424
0
ARC
8
DEFAULT_255_1_234
10
5.3564445
20
9.6203573
40
0.184134
50
43.4415429
51
83.1661404
0
ARC
8
DEFAULT_255_1_234
10
5.3430363
20
9.5466771
40
0.258926
50
82.160215
51
90.1505798
0
ARC
8
DEFAULT_255_1_234
10
5.339879
20
9.4929865
40
0.3126255
50
89.5460705
51
102.5418777
0
ARC
8
DEFAULT_255_1_234
10
5.3155876
20
9.5960665
40
0.2067346
50
102.1739365
51
129.2061916
0
ARC
8
DEFAULT_255_1_234
10
5.3076948
20
9.6085094
40
0.1921118
50
129.7279328
51
135.7542026
0
ARC
8
DEFAULT_255_1_234
10
5.3198476
20
9.5988045
40
0.2075944
50
136.175737
51
166.3674722
0
ARC
8
DEFAULT_255_1_234
10
5.4205395
20
9.5718182
40
0.3118201
50
165.9092917
51
178.8683903
0
ARC
8
DEFAULT_255_1_234
10
5.5070256
20
9.5671179
40
0.3983935
50
178.438168
51
180.0083905
0
ARC
8
DEFAULT_255_1_234
10
5.3668859
20
9.5710231
40
0.4068601
50
163.2878735
51
180.5581814
0
ARC
8
DEFAULT_255_1_234
10
5.286712
20
9.593084
40
0.3237344
50
133.454115
51
162.9470031
0
ARC
8
DEFAULT_255_1_234
10
5.3045661
20
9.5741
40
0.349795
50
100.7869394
51
133.4384016
0
ARC
8
DEFAULT_255_1_234
10
5.3393433
20
9.4192319
40
0.5084616
50
89.6605301
51
101.3704185
0
ARC
8
DEFAULT_255_1_234
10
5.3459772
20
9.4253496
40
0.502348
50
78.2171172
51
90.4130393
0
ARC
8
DEFAULT_255_1_234
10
5.381485
20
9.5877637
40
0.3361092
50
55.9268222
51
78.4888551
0
ARC
8
DEFAULT_255_1_234
10
5.401129
20
9.6216324
40
0.2970617
50
47.9292255
51
55.4054003
0
ARC
8
DEFAULT_255_1_234
10
5.4112851
20
9.6319502
40
0.2825983
50
4.3347696
51
48.0560701
0
ARC
8
DEFAULT_255_1_234
10
5.3017244
20
9.6149601
40
0.393225
50
359.925209
51
5.5967654
0
ARC
8
DEFAULT_255_1_234
10
5.3446136
20
9.6205816
40
0.3503892
50
337.8914096
51
358.9967724
0
ARC
8
DEFAULT_255_1_234
10
5.0732548
20
9.7252706
40
0.6412172
50
326.9135351
51
338.3505194
0
ARC
8
DEFAULT_255_1_234
10
4.6746852
20
9.9807284
40
1.1146189
50
319.6472867
51
327.095818
0
ARC
8
DEFAULT_255_1_234
10
4.2913855
20
10.2969
40
1.6114559
50
317.2586784
51
319.9046139
0
ENDSEC
0
EOF