0
SECTION
2
HEADER
9
$MEASUREMENT
70
1
0
ENDSEC
0
SECTION
2
TABLES
0
TABLE
2
LTYPE
0
LTYPE
72
65
70
64
2
CONTINUOUS
3
______
73
0
40
0
0
ENDTAB
0
TABLE
2
LAYER
0
LAYER
2
DEFAULT_255_2_778
70
0
62
255
6
CONTINUOUS
0
LAYER
2
DEFAULT_255_1_234
70
0
62
255
6
CONTINUOUS
0
ENDTAB
0
ENDSEC
0
SECTION
2
ENTITIES
0
LINE
8
DEFAULT_255_2_778
10
8.0698004
20
11.7739998
11
39.8198004
21
11.7739998
0
LINE
8
DEFAULT_255_2_778
10
39.8198004
20
11.7739998
11
39.8198004
21
-4.1010002
0
LINE
8
DEFAULT_255_2_778
10
39.8198004
20
-4.1010002
11
8.0698004
21
-4.1010002
0
LINE
8
DEFAULT_255_2_778
10
8.0698004
20
-4.1010002
11
8.0698004
21
11.7739998
0
LINE
8
DEFAULT_255_2_778
10
18.6531335
20
6.4823333
11
29.2364335
21
6.4823333
0
LINE
8
DEFAULT_255_2_778
10
29.2364335
20
6.4823333
11
29.2364335
21
1.1906333
0
LINE
8
DEFAULT_255_2_778
10
29.2364335
20
1.1906333
11
18.6531335
21
1.1906333
0
LINE
8
DEFAULT_255_2_778
10
18.6531335
20
1.1906333
11
18.6531335
21
6.4823333
0
LINE
8
DEFAULT_255_2_778
10
23.9448084
20
1.1906166
11
23.9448084
21
-0.1322834
0
LINE
8
DEFAULT_255_2_778
10
23.9448084
20
-0.1322834
11
30.5594084
21
-0.1322834
0
LINE
8
DEFAULT_255_2_778
10
30.5594084
20
-0.1322834
11
30.5594084
21
2.5135166
0
LINE
8
DEFAULT_255_2_778
10
29.2364292
20
2.5135
11
31.7499292
21
2.5135
0
LINE
8
DEFAULT_255_2_778
10
16.0073335
20
2.5135
11
26.5906335
21
2.5135
0
LINE
8
DEFAULT_255_2_778
10
26.5906125
20
2.5134583
11
24.6062125
21
3.1749583
0
LINE
8
DEFAULT_255_2_778
10
24.6062125
20
3.1749583
11
24.6062125
21
1.8520583
0
LINE
8
DEFAULT_255_2_778
10
24.6062125
20
1.8520583
11
26.5906125
21
2.5134583
0
LINE
8
DEFAULT_255_2_778
10
18.6531125
20
2.5134583
11
20.6375125
21
3.1749583
0
LINE
8
DEFAULT_255_2_778
10
20.6375125
20
3.1749583
11
20.6375125
21
1.8520583
0
LINE
8
DEFAULT_255_2_778
10
20.6375125
20
1.8520583
11
18.6531125
21
2.5134583
0
LINE
8
DEFAULT_255_2_778
10
26.5906
20
3.1749583
11
26.5906
21
1.8520583
0
LINE
8
DEFAULT_255_2_778
10
22.3572834
20
9.1281166
11
23.9447834
21
8.8341166
0
LINE
8
DEFAULT_255_2_778
10
23.9447834
20
8.8341166
11
21.2989834
21
8.3931166
0
LINE
8
DEFAULT_255_2_778
10
21.2989834
20
8.3931166
11
23.9447834
21
7.9523166
0
LINE
8
DEFAULT_255_2_778
10
23.9447834
20
7.9523166
11
21.2989834
21
7.5112166
0
LINE
8
DEFAULT_255_2_778
10
21.2989834
20
7.5112166
11
23.9447834
21
7.0702166
0
LINE
8
DEFAULT_255_2_778
10
23.9447834
20
7.0702166
11
21.2989834
21
6.6291166
0
LINE
8
DEFAULT_255_2_778
10
21.2989834
20
6.6291166
11
22.3572834
21
6.4823166
0
LINE
8
DEFAULT_255_2_778
10
19.97607
20
6.4823749
11
26.85017
21
10.4510749
0
LINE
8
DEFAULT_255_2_778
10
26.85017
20
10.4510749
11
24.80087
21
10.0317749
0
LINE
8
DEFAULT_255_2_778
10
24.80087
20
10.0317749
11
25.46237
21
8.8860749
0
LINE
8
DEFAULT_255_2_778
10
25.46237
20
8.8860749
11
26.85017
21
10.4510749
0
LINE
8
DEFAULT_255_2_778
10
18.6531417
20
5.9531083
11
17.3302417
21
4.4979083
0
LINE
8
DEFAULT_255_2_778
10
17.3302417
20
4.4979083
11
18.6531417
21
3.0427083
0
LINE
8
DEFAULT_255_2_778
10
18.6531417
20
3.0427083
11
18.6531417
21
5.9531083
0
LINE
8
DEFAULT_255_2_778
10
18.6531417
20
5.9531083
11
18.6531417
21
5.9531083
0
LINE
8
DEFAULT_255_2_778
10
12.8323
20
-0.7937125
11
12.8323
21
-2.7781125
0
LINE
8
DEFAULT_255_2_778
10
9.3927084
20
2.5135
11
2.7781084
21
2.5135
0
LINE
8
DEFAULT_255_2_778
10
38.3645626
20
2.5135
11
45.1114626
21
2.5135
0
LINE
8
DEFAULT_255_2_778
10
9.5250084
20
2.5134916
11
12.8323084
21
5.8207916
0
LINE
8
DEFAULT_255_2_778
10
12.8323084
20
5.8207916
11
16.1396084
21
2.5134916
0
LINE
8
DEFAULT_255_2_778
10
16.1396084
20
2.5134916
11
12.8323084
21
-0.7938084
0
LINE
8
DEFAULT_255_2_778
10
12.8323084
20
-0.7938084
11
9.5250084
21
2.5134916
0
LINE
8
DEFAULT_255_2_778
10
14.8166251
20
1.1906
11
10.8479251
21
1.1906
0
LINE
8
DEFAULT_255_2_778
10
12.8323
20
5.8208041
11
12.8323
21
1.1906041
0
LINE
8
DEFAULT_255_2_778
10
31.7500084
20
2.5134916
11
35.0573084
21
5.8207916
0
LINE
8
DEFAULT_255_2_778
10
35.0573084
20
5.8207916
11
38.3646084
21
2.5134916
0
LINE
8
DEFAULT_255_2_778
10
38.3646084
20
2.5134916
11
35.0573084
21
-0.7938084
0
LINE
8
DEFAULT_255_2_778
10
35.0573084
20
-0.7938084
11
31.7500084
21
2.5134916
0
LINE
8
DEFAULT_255_2_778
10
35.0573
20
5.787725
11
35.0573
21
3.406525
0
LINE
8
DEFAULT_255_1_234
10
4.4816137
20
4.6247433
11
4.4816137
21
3.4497
0
LINE
8
DEFAULT_255_1_234
10
4.4816137
20
3.4497
11
4.3322234
21
3.4497
0
LINE
8
DEFAULT_255_1_234
10
4.3322234
20
3.4497
11
4.3322234
21
4.4400133
0
LINE
8
DEFAULT_255_1_234
10
4.3322234
20
4.4400133
11
4.0326396
21
4.3299785
0
LINE
8
DEFAULT_255_1_234
10
4.0326396
20
4.3299785
11
4.0326396
21
4.4649117
0
LINE
8
DEFAULT_255_1_234
10
4.0326396
20
4.4649117
11
4.4583217
21
4.6247433
0
LINE
8
DEFAULT_255_1_234
10
4.4583217
20
4.6247433
11
4.4816137
21
4.6247433
0
LINE
8
DEFAULT_255_1_234
10
42.8656119
20
3.5709792
11
42.8656119
21
3.4497
0
LINE
8
DEFAULT_255_1_234
10
42.8656119
20
3.4497
11
42.099384
21
3.4497
0
LINE
8
DEFAULT_255_1_234
10
42.099384
20
3.4497
11
42.099384
21
3.5565221
0
LINE
8
DEFAULT_255_1_234
10
42.099384
20
3.5565221
11
42.5041836
21
4.0062995
0
LINE
8
DEFAULT_255_1_234
10
42.2254823
20
4.2745595
11
42.0768952
21
4.2745595
0
LINE
8
DEFAULT_255_1_234
10
42.5917296
20
3.9107218
11
42.2784918
21
3.5709792
0
LINE
8
DEFAULT_255_1_234
10
42.2784918
20
3.5709792
11
42.8656119
21
3.5709792
0
ARC
8
DEFAULT_255_1_234
10
41.155167
20
5.1992527
40
1.8008286
50
318.5132453
51
320.7828378
0
ARC
8
DEFAULT_255_1_234
10
41.6838644
20
4.7689426
40
1.1191493
50
320.7372736
51
323.9737074
0
ARC
8
DEFAULT_255_1_234
10
42.0758501
20
4.4849361
40
0.6350923
50
323.8961724
51
328.6421089
0
ARC
8
DEFAULT_255_1_234
10
42.2805096
20
4.3587031
40
0.3946393
50
328.8299013
51
331.789948
0
ARC
8
DEFAULT_255_1_234
10
42.3802274
20
4.3072509
40
0.2824501
50
331.4255242
51
352.9364833
0
ARC
8
DEFAULT_255_1_234
10
42.3938775
20
4.3041976
40
0.2685315
50
353.2248685
51
0.0169286
0
ARC
8
DEFAULT_255_1_234
10
42.4148652
20
4.306495
40
0.2475536
50
359.4866256
51
15.9339782
0
ARC
8
DEFAULT_255_1_234
10
42.4655637
20
4.3201286
40
0.1950618
50
16.1714718
51
43.5284424
0
ARC
8
DEFAULT_255_1_234
10
42.4732946
20
4.3278573
40
0.184134
50
43.4415429
51
83.1661404
0
ARC
8
DEFAULT_255_1_234
10
42.4598864
20
4.2541771
40
0.258926
50
82.160215
51
90.1505798
0
ARC
8
DEFAULT_255_1_234
10
42.4567291
20
4.2004865
40
0.3126255
50
89.5460705
51
102.5418777
0
ARC
8
DEFAULT_255_1_234
10
42.4324377
20
4.3035665
40
0.2067346
50
102.1739365
51
129.2061916
0
ARC
8
DEFAULT_255_1_234
10
42.4245449
20
4.3160094
40
0.1921118
50
129.7279328
51
135.7542026
0
ARC
8
DEFAULT_255_1_234
10
42.4366977
20
4.3063045
40
0.2075944
50
136.175737
51
166.3674722
0
ARC
8
DEFAULT_255_1_234
10
42.5373896
20
4.2793182
40
0.3118201
50
165.9092917
51
178.8683903
0
ARC
8
DEFAULT_255_1_234
10
42.6238757
20
4.2746179
40
0.3983935
50
178.438168
51
180.0083905
0
ARC
8
DEFAULT_255_1_234
10
42.4837359
20
4.2785231
40
0.4068601
50
163.2878735
51
180.5581814
0
ARC
8
DEFAULT_255_1_234
10
42.4035621
20
4.300584
40
0.3237344
50
133.454115
51
162.9470031
0
ARC
8
DEFAULT_255_1_234
10
42.4214162
20
4.2816
40
0.349795
50
100.7869394
51
133.4384016
0
ARC
8
DEFAULT_255_1_234
10
42.4561934
20
4.1267319
40
0.5084616
50
89.6605301
51
101.3704185
0
ARC
8
DEFAULT_255_1_234
10
42.4628273
20
4.1328496
40
0.502348
50
78.2171172
51
90.4130393
0
ARC
8
DEFAULT_255_1_234
10
42.4983351
20
4.2952637
40
0.3361092
50
55.9268222
51
78.4888551
0
ARC
8
DEFAULT_255_1_234
10
42.5179791
20
4.3291324
40
0.2970617
50
47.9292255
51
55.4054003
0
ARC
8
DEFAULT_255_1_234
10
42.5281352
20
4.3394502
40
0.2825983
50
4.3347696
51
48.0560701
0
ARC
8
DEFAULT_255_1_234
10
42.4185745
20
4.3224601
40
0.393225
50
359.925209
51
5.5967654
0
ARC
8
DEFAULT_255_1_234
10
42.4614637
20
4.3280816
40
0.3503892
50
337.8914096
51
358.9967724
0
ARC
8
DEFAULT_255_1_234
10
42.1901049
20
4.4327706
40
0.6412172
50
326.9135351
51
338.3505194
0
ARC
8
DEFAULT_255_1_234
10
41.7915353
20
4.6882284
40
1.1146189
50
319.6472867
51
327.095818
0
ARC
8
DEFAULT_255_1_234
10
41.4082356
20
5.0044
40
1.6114559
50
317.2586784
51
319.9046139
0
ENDSEC
0
EOF