0
SECTION
2
HEADER
9
$MEASUREMENT
70
1
0
ENDSEC
0
SECTION
2
TABLES
0
TABLE
2
LTYPE
0
LTYPE
72
65
70
64
2
CONTINUOUS
3
______
73
0
40
0
0
ENDTAB
0
TABLE
2
LAYER
0
LAYER
2
DEFAULT_255_2_778
70
0
62
255
6
CONTINUOUS
0
LAYER
2
DEFAULT_1_2_778
70
0
62
1
6
CONTINUOUS
0
ENDTAB
0
ENDSEC
0
SECTION
2
ENTITIES
0
LINE
8
DEFAULT_255_2_778
10
9.9671334
20
3.4395333
11
7.5269334
21
-1.8521667
0
LINE
8
DEFAULT_255_2_778
10
7.5269334
20
-1.8521667
11
3.7018334
21
-1.8521667
0
LINE
8
DEFAULT_255_2_778
10
9.8351334
20
3.4392624
11
3.7018334
21
3.4128624
0
LINE
8
DEFAULT_255_2_778
10
9.9671334
20
3.4559624
11
7.5271334
21
8.7309624
0
LINE
8
DEFAULT_255_2_778
10
7.5266355
20
8.7308989
11
3.7018355
21
8.7308989
0
LINE
8
DEFAULT_255_2_778
10
9.9507355
20
3.4558989
11
7.5271355
21
6.0850989
0
LINE
8
DEFAULT_255_2_778
10
7.5266355
20
6.0850989
11
3.7018355
21
6.0850989
0
LINE
8
DEFAULT_1_2_778
10
2.9103969
20
8.7312
11
3.5699969
21
8.7312
0
LINE
8
DEFAULT_1_2_778
10
3.5699969
20
9.3926458
11
3.5699969
21
8.0697458
0
LINE
8
DEFAULT_1_2_778
10
2.9103969
20
6.0853458
11
3.5699969
21
6.0853458
0
LINE
8
DEFAULT_1_2_778
10
3.57
20
6.7468583
11
3.57
21
5.4239583
0
LINE
8
DEFAULT_255_2_778
10
9.9671657
20
3.456251
11
7.5268657
21
0.793751
0
LINE
8
DEFAULT_255_2_778
10
7.5268657
20
0.793751
11
3.7020657
21
0.793751
0
LINE
8
DEFAULT_1_2_778
10
2.9103969
20
3.4395
11
3.5699969
21
3.4395
0
LINE
8
DEFAULT_1_2_778
10
3.5699969
20
4.1009458
11
3.5699969
21
2.7780458
0
LINE
8
DEFAULT_1_2_778
10
2.9103969
20
0.7936458
11
3.5699969
21
0.7936458
0
LINE
8
DEFAULT_1_2_778
10
3.5699969
20
1.4551458
11
3.5699969
21
0.1322458
0
LINE
8
DEFAULT_1_2_778
10
2.9103969
20
-1.8521542
11
3.5699969
21
-1.8521542
0
LINE
8
DEFAULT_1_2_778
10
3.57
20
-1.1906417
11
3.57
21
-2.5135417
0
LINE
8
DEFAULT_255_2_778
10
10.0494563
20
3.4395
11
12.8323563
21
3.4395
0
LINE
8
DEFAULT_255_2_778
10
14.0228417
20
3.4395333
11
12.6999417
21
2.3811333
0
LINE
8
DEFAULT_255_2_778
10
12.6999417
20
2.3811333
11
12.6999417
21
4.4978333
0
LINE
8
DEFAULT_255_2_778
10
12.6999417
20
4.4978333
11
14.0228417
21
3.4395333
0
ENDSEC
0
EOF