0
SECTION
2
HEADER
9
$MEASUREMENT
70
1
0
ENDSEC
0
SECTION
2
TABLES
0
TABLE
2
LTYPE
0
LTYPE
72
65
70
64
2
CONTINUOUS
3
______
73
0
40
0
0
ENDTAB
0
TABLE
2
LAYER
0
LAYER
2
DEFAULT_255_2_005
70
0
62
255
6
CONTINUOUS
0
LAYER
2
DEFAULT_255_2_778_8
70
0
62
255
6
CONTINUOUS
0
ENDTAB
0
ENDSEC
0
SECTION
2
ENTITIES
0
LINE
8
DEFAULT_255_2_005
10
2.218009
20
0.7465064
11
1.9778657
21
0.7465064
0
LINE
8
DEFAULT_255_2_005
10
1.0538358
20
-0.0535364
11
1.2939792
21
-0.0535364
0
ARC
8
DEFAULT_255_2_005
10
1.5578458
20
-0.1209177
40
0.4200313
50
359.5777274
51
11.4019843
0
ARC
8
DEFAULT_255_2_005
10
1.7019169
20
-0.0906088
40
0.2728144
50
11.1438467
51
31.8837747
0
ARC
8
DEFAULT_255_2_005
10
1.7405135
20
-0.0691519
40
0.2287181
50
32.4266663
51
45.4862607
0
ARC
8
DEFAULT_255_2_005
10
1.6451837
20
-0.1725269
40
0.3692942
50
46.1838566
51
57.3876958
0
ARC
8
DEFAULT_255_2_005
10
1.4683136
20
-0.4425908
40
0.6921119
50
57.1035222
51
63.6437124
0
ARC
8
DEFAULT_255_2_005
10
1.2486783
20
-0.8826158
40
1.1839049
50
63.5733155
51
68.3351637
0
ARC
8
DEFAULT_255_2_005
10
1.0355389
20
-1.4076011
40
1.7504962
50
68.1953728
51
70.3956373
0
ARC
8
DEFAULT_255_2_005
10
2.2717574
20
2.0701634
40
1.9404503
50
246.7730247
51
250.4639538
0
ARC
8
DEFAULT_255_2_005
10
1.9995752
20
1.4397238
40
1.2537672
50
241.5773628
51
246.841225
0
ARC
8
DEFAULT_255_2_005
10
1.761176
20
1.0021111
40
0.7554341
50
234.0692541
51
241.681384
0
ARC
8
DEFAULT_255_2_005
10
1.6583068
20
0.853998
40
0.5751499
50
233.4155757
51
233.7088367
0
ARC
8
DEFAULT_255_2_005
10
1.6728998
20
0.8788436
40
0.6038058
50
221.7638659
51
233.7088152
0
ARC
8
DEFAULT_255_2_005
10
1.5806273
20
0.7955226
40
0.4794836
50
207.7494795
51
221.6814687
0
ARC
8
DEFAULT_255_2_005
10
1.5686908
20
0.7849084
40
0.4639937
50
186.680224
51
207.2758212
0
ARC
8
DEFAULT_255_2_005
10
1.6907567
20
0.8028335
40
0.5873271
50
179.8928346
51
187.0317738
0
ARC
8
DEFAULT_255_2_005
10
1.6562342
20
0.8097777
40
0.5528344
50
160.8948743
51
180.6058654
0
ARC
8
DEFAULT_255_2_005
10
1.5855418
20
0.8288943
40
0.4798058
50
133.6801181
51
160.288933
0
ARC
8
DEFAULT_255_2_005
10
1.6079335
20
0.8086284
40
0.5099314
50
98.0832414
51
133.9270351
0
ARC
8
DEFAULT_255_2_005
10
1.6465639
20
0.6082065
40
0.7138649
50
89.8065887
51
98.891097
0
ARC
8
DEFAULT_255_2_005
10
1.6533504
20
0.6875996
40
0.6344829
50
74.2979896
51
90.3952322
0
ARC
8
DEFAULT_255_2_005
10
1.6751326
20
0.7746443
40
0.5447977
50
60.12001
51
74.0258158
0
ARC
8
DEFAULT_255_2_005
10
1.693987
20
0.8020625
40
0.5116384
50
27.5687047
51
60.4211174
0
ARC
8
DEFAULT_255_2_005
10
1.6050305
20
0.7536214
40
0.6129162
50
0.2627834
51
27.7342372
0
ARC
8
DEFAULT_255_2_005
10
1.5037565
20
0.746519
40
0.7142525
50
359.9989906
51
0.7952664
0
ARC
8
DEFAULT_255_2_005
10
1.3901773
20
0.7502833
40
0.5877005
50
359.631777
51
10.1212377
0
ARC
8
DEFAULT_255_2_005
10
1.5940037
20
0.7880624
40
0.3804095
50
9.9145256
51
26.9762398
0
ARC
8
DEFAULT_255_2_005
10
1.6708225
20
0.8248155
40
0.2952843
50
27.3822636
51
41.1901278
0
ARC
8
DEFAULT_255_2_005
10
1.6878264
20
0.8373289
40
0.2742534
50
41.5622887
51
77.8699011
0
ARC
8
DEFAULT_255_2_005
10
1.6523601
20
0.6944705
40
0.4214005
50
77.236922
51
90.4604352
0
ARC
8
DEFAULT_255_2_005
10
1.6458217
20
0.6991506
40
0.4167187
50
89.5666231
51
102.0248541
0
ARC
8
DEFAULT_255_2_005
10
1.6148373
20
0.8373718
40
0.2750795
50
101.7107266
51
125.6253412
0
ARC
8
DEFAULT_255_2_005
10
1.5995504
20
0.8628268
40
0.2454959
50
126.1857894
51
135.4861734
0
ARC
8
DEFAULT_255_2_005
10
1.6146065
20
0.8507272
40
0.264722
50
135.9033717
51
165.7601254
0
ARC
8
DEFAULT_255_2_005
10
1.7442699
20
0.8148203
40
0.3992444
50
165.3426764
51
178.6342788
0
ARC
8
DEFAULT_255_2_005
10
1.8620334
20
0.8079452
40
0.5171543
50
178.1837593
51
180.0108402
0
ARC
8
DEFAULT_255_2_005
10
1.6190205
20
0.8042959
40
0.2741644
50
179.257788
51
204.9573036
0
ARC
8
DEFAULT_255_2_005
10
1.6157866
20
0.8070323
40
0.272414
50
205.7661048
51
227.2917408
0
ARC
8
DEFAULT_255_2_005
10
1.7497771
20
0.9519464
40
0.4697806
50
227.2712182
51
238.0733188
0
ARC
8
DEFAULT_255_2_005
10
1.9134844
20
1.2112183
40
0.7764073
50
237.9382104
51
245.3110265
0
ARC
8
DEFAULT_255_2_005
10
2.1005658
20
1.6133149
40
1.2198918
50
245.2158056
51
250.3284166
0
ARC
8
DEFAULT_255_2_005
10
2.2035588
20
1.8880765
40
1.5132947
50
250.1584331
51
250.453915
0
ARC
8
DEFAULT_255_2_005
10
1.2194496
20
-1.0038073
40
1.5417081
50
65.7192213
51
71.945294
0
ARC
8
DEFAULT_255_2_005
10
1.458138
20
-0.4791261
40
0.9652905
50
56.8755581
51
65.8273045
0
ARC
8
DEFAULT_255_2_005
10
1.671095
20
-0.1568187
40
0.5789948
50
42.8524789
51
57.0952989
0
ARC
8
DEFAULT_255_2_005
10
1.764702
20
-0.0633636
40
0.4468371
50
41.6494322
51
42.2306678
0
ARC
8
DEFAULT_255_2_005
10
1.7484205
20
-0.0742105
40
0.4662195
50
10.8430063
51
41.3157545
0
ARC
8
DEFAULT_255_2_005
10
1.552724
20
-0.1175566
40
0.6666011
50
359.6693883
51
11.3379329
0
ARC
8
DEFAULT_255_2_005
10
1.6432201
20
-0.1269242
40
0.5761206
50
343.781248
51
0.5490974
0
ARC
8
DEFAULT_255_2_005
10
1.7660075
20
-0.1604423
40
0.4488629
50
312.4947504
51
343.5117741
0
ARC
8
DEFAULT_255_2_005
10
1.7308616
20
-0.1206475
40
0.501948
50
283.2698463
51
312.3842779
0
ARC
8
DEFAULT_255_2_005
10
1.6697848
20
0.1164162
40
0.7467185
50
270.5069291
51
283.6558781
0
ARC
8
DEFAULT_255_2_005
10
1.6607576
20
0.3140731
40
0.9444756
50
269.9977072
51
270.9484496
0
ARC
8
DEFAULT_255_2_005
10
1.6546623
20
0.0267898
40
0.6572203
50
242.8410877
51
270.528092
0
ARC
8
DEFAULT_255_2_005
10
1.6015665
20
-0.0692208
40
0.54757
50
211.3826072
51
243.1985992
0
ARC
8
DEFAULT_255_2_005
10
1.6031299
20
-0.0701441
40
0.5484263
50
184.2431658
51
211.2152027
0
ARC
8
DEFAULT_255_2_005
10
1.7319422
20
-0.0540606
40
0.6781067
50
179.9557121
51
184.7931175
0
ARC
8
DEFAULT_255_2_005
10
1.7995825
20
-0.057468
40
0.5056186
50
179.5544775
51
192.3103781
0
ARC
8
DEFAULT_255_2_005
10
1.6326127
20
-0.0958706
40
0.3343057
50
191.9812402
51
217.1743918
0
ARC
8
DEFAULT_255_2_005
10
1.6066224
20
-0.1119518
40
0.3038933
50
217.7194583
51
225.2073279
0
ARC
8
DEFAULT_255_2_005
10
1.6219522
20
-0.0940744
40
0.3273854
50
225.5077316
51
258.5629232
0
ARC
8
DEFAULT_255_2_005
10
1.6574632
20
0.057775
40
0.4832837
50
258.0062407
51
270.3860869
0
ARC
8
DEFAULT_255_2_005
10
1.6640438
20
0.064968
40
0.4904769
50
269.6117008
51
280.2417156
0
ARC
8
DEFAULT_255_2_005
10
1.6972001
20
-0.111551
40
0.3108779
50
280.0126821
51
297.5247676
0
ARC
8
DEFAULT_255_2_005
10
1.7304253
20
-0.1787519
40
0.2359344
50
297.9112003
51
315.3434128
0
ARC
8
DEFAULT_255_2_005
10
1.7056223
20
-0.1572461
40
0.2687014
50
315.7987041
51
348.0066387
0
ARC
8
DEFAULT_255_2_005
10
1.5793205
20
-0.1269502
40
0.398556
50
347.5193838
51
0.4222059
0
LINE
8
DEFAULT_255_2_005
10
3.4252515
20
1.2959648
11
3.6653948
21
1.2959648
0
LINE
8
DEFAULT_255_2_005
10
3.6653948
20
1.2959648
11
3.6653948
21
-0.0548416
0
LINE
8
DEFAULT_255_2_005
10
2.4973062
20
-0.0548416
11
2.4973062
21
1.2959648
0
LINE
8
DEFAULT_255_2_005
10
2.4973062
20
1.2959648
11
2.7348393
21
1.2959648
0
LINE
8
DEFAULT_255_2_005
10
2.7348393
20
1.2959648
11
2.7348393
21
-0.0457057
0
LINE
8
DEFAULT_255_2_005
10
3.4252515
20
-0.0457057
11
3.4252515
21
1.2959648
0
ARC
8
DEFAULT_255_2_005
10
2.8942835
20
-0.053453
40
0.7711126
50
346.7432388
51
359.8968292
0
ARC
8
DEFAULT_255_2_005
10
3.1438209
20
-0.1161705
40
0.513857
50
317.2263597
51
347.1695622
0
ARC
8
DEFAULT_255_2_005
10
3.1621214
20
-0.1280666
40
0.4923589
50
314.7549597
51
316.7962868
0
ARC
8
DEFAULT_255_2_005
10
3.1551163
20
-0.115801
40
0.5060143
50
283.4070651
51
314.3403753
0
ARC
8
DEFAULT_255_2_005
10
3.0895994
20
0.132526
40
0.7627898
50
270.7063265
51
283.8691931
0
ARC
8
DEFAULT_255_2_005
10
3.0794698
20
0.3390176
40
0.9694203
50
269.9954495
51
271.1545307
0
ARC
8
DEFAULT_255_2_005
10
3.0733049
20
0.2190287
40
0.849453
50
258.9563992
51
270.4106375
0
ARC
8
DEFAULT_255_2_005
10
3.0135411
20
-0.0752488
40
0.5491818
50
239.7078679
51
259.1949392
0
ARC
8
DEFAULT_255_2_005
10
2.9655786
20
-0.1651353
40
0.4473926
50
224.905144
51
239.2051237
0
ARC
8
DEFAULT_255_2_005
10
2.9993633
20
-0.1376026
40
0.4907771
50
195.5445896
51
224.397414
0
ARC
8
DEFAULT_255_2_005
10
3.2423249
20
-0.0646504
40
0.7444201
50
182.6482749
51
195.9427368
0
ARC
8
DEFAULT_255_2_005
10
3.4803196
20
-0.045975
40
0.9830534
50
180.5167794
51
183.0946683
0
ARC
8
DEFAULT_255_2_005
10
3.4534873
20
-0.0495798
40
0.7186584
50
179.6911278
51
188.1168804
0
ARC
8
DEFAULT_255_2_005
10
3.1846742
20
-0.0892429
40
0.4469399
50
187.9487882
51
200.7960223
0
ARC
8
DEFAULT_255_2_005
10
3.0363659
20
-0.1461055
40
0.2881056
50
200.6961173
51
220.2301011
0
ARC
8
DEFAULT_255_2_005
10
3.0027092
20
-0.16796
40
0.2483466
50
221.3958403
51
251.2646042
0
ARC
8
DEFAULT_255_2_005
10
3.0544728
20
-0.0263632
40
0.3990826
50
250.7563395
51
264.3053512
0
ARC
8
DEFAULT_255_2_005
10
3.077765
20
0.1689718
40
0.5957768
50
263.9404117
51
270.1565498
0
ARC
8
DEFAULT_255_2_005
10
3.0829554
20
0.131899
40
0.5587131
50
269.6346562
51
279.3961416
0
ARC
8
DEFAULT_255_2_005
10
3.1192921
20
-0.0787877
40
0.344924
50
279.1548597
51
295.1654058
0
ARC
8
DEFAULT_255_2_005
10
3.1645293
20
-0.1761254
40
0.2375893
50
295.2733657
51
318.9415044
0
ARC
8
DEFAULT_255_2_005
10
3.1174801
20
-0.1419724
40
0.2955439
50
319.9400739
51
341.6453066
0
ARC
8
DEFAULT_255_2_005
10
2.945264
20
-0.0820171
40
0.4778859
50
341.3246447
51
353.4036145
0
ARC
8
DEFAULT_255_2_005
10
2.6825093
20
-0.048587
40
0.7427477
50
353.1702703
51
0.2222694
0
LINE
8
DEFAULT_255_2_005
10
4.5933401
20
-0.6043
11
4.0334406
21
-0.6043
0
LINE
8
DEFAULT_255_2_005
10
4.0334406
20
-0.6043
11
4.0334406
21
1.2959648
0
LINE
8
DEFAULT_255_2_005
10
4.0334406
20
1.2959648
11
4.5750683
21
1.2959648
0
LINE
8
DEFAULT_255_2_005
10
4.6037811
20
0.2844915
11
4.2722789
21
0.2844915
0
LINE
8
DEFAULT_255_2_005
10
4.2722789
20
0.2844915
11
4.2722789
21
-0.3993951
0
LINE
8
DEFAULT_255_2_005
10
4.2722789
20
-0.3993951
11
4.5985606
21
-0.3993951
0
LINE
8
DEFAULT_255_2_005
10
4.2722789
20
1.0897548
11
4.2722789
21
0.485481
0
LINE
8
DEFAULT_255_2_005
10
4.2722789
20
0.485481
11
4.5789837
21
0.485481
0
LINE
8
DEFAULT_255_2_005
10
4.5750683
20
1.0897548
11
4.2722789
21
1.0897548
0
ARC
8
DEFAULT_255_2_005
10
4.5804987
20
0.4475368
40
0.8484455
50
80.3226544
51
90.3667198
0
ARC
8
DEFAULT_255_2_005
10
4.6351031
20
0.7559878
40
0.5352084
50
64.3837806
51
80.5342803
0
ARC
8
DEFAULT_255_2_005
10
4.6961791
20
0.887823
40
0.3899304
50
46.2229926
51
64.1009441
0
ARC
8
DEFAULT_255_2_005
10
4.6874129
20
0.8862879
40
0.3971387
50
17.4161947
51
45.4630208
0
ARC
8
DEFAULT_255_2_005
10
4.4793045
20
0.8165868
40
0.6165834
50
4.347364
51
17.80803
0
ARC
8
DEFAULT_255_2_005
10
4.2241676
20
0.7909382
40
0.8729527
50
359.9105661
51
4.7565773
0
ARC
8
DEFAULT_255_2_005
10
4.6457412
20
0.7860167
40
0.4513919
50
342.5459668
51
0.4517422
0
ARC
8
DEFAULT_255_2_005
10
4.6990512
20
0.7717381
40
0.3962609
50
326.7814101
51
342.2034741
0
ARC
8
DEFAULT_255_2_005
10
4.6563746
20
0.7997408
40
0.4473042
50
295.7139235
51
326.7753957
0
ARC
8
DEFAULT_255_2_005
10
4.7477555
20
0.0510623
40
0.3606022
50
31.5928929
51
73.4539205
0
ARC
8
DEFAULT_255_2_005
10
4.6704635
20
-0.0071337
40
0.4570168
50
32.1706716
51
32.7312169
0
ARC
8
DEFAULT_255_2_005
10
4.6421578
20
-0.0212562
40
0.488506
50
9.6145888
51
31.8050846
0
ARC
8
DEFAULT_255_2_005
10
4.47359
20
-0.0533671
40
0.6600785
50
359.7587243
51
9.918887
0
ARC
8
DEFAULT_255_2_005
10
4.3793209
20
-0.0616808
40
0.7543621
50
347.9583301
51
0.4203371
0
ARC
8
DEFAULT_255_2_005
10
4.6231761
20
-0.1166766
40
0.5044076
50
323.4879359
51
348.2890868
0
ARC
8
DEFAULT_255_2_005
10
4.6629893
20
-0.1409013
40
0.4580144
50
316.1630732
51
322.9602232
0
ARC
8
DEFAULT_255_2_005
10
4.6676591
20
-0.1410276
40
0.4545694
50
284.0513534
51
315.7668928
0
ARC
8
DEFAULT_255_2_005
10
4.6046782
20
0.0870274
40
0.6911156
50
271.1392094
51
284.5261137
0
ARC
8
DEFAULT_255_2_005
10
4.5934723
20
0.2884541
40
0.8927542
50
269.991515
51
271.601234
0
ARC
8
DEFAULT_255_2_005
10
4.6018087
20
-0.0670712
40
0.3323397
50
269.4400196
51
286.1512864
0
ARC
8
DEFAULT_255_2_005
10
4.6221387
20
-0.1412374
40
0.255448
50
286.3987976
51
318.6520841
0
ARC
8
DEFAULT_255_2_005
10
4.5924023
20
-0.1164372
40
0.294157
50
318.8521281
51
344.1948379
0
ARC
8
DEFAULT_255_2_005
10
4.4473717
20
-0.0727061
40
0.4456229
50
343.8635952
51
356.6728466
0
ARC
8
DEFAULT_255_2_005
10
4.2888764
20
-0.0593071
40
0.6046432
50
356.2769597
51
0.0521376
0
ARC
8
DEFAULT_255_2_005
10
4.3008746
20
-0.0522681
40
0.5926802
50
359.3727
51
11.8776698
0
ARC
8
DEFAULT_255_2_005
10
4.5801589
20
0.0096071
40
0.3066556
50
11.3045615
51
35.4671478
0
ARC
8
DEFAULT_255_2_005
10
4.6404512
20
0.0429284
40
0.2383456
50
37.3534071
51
83.034709
0
ARC
8
DEFAULT_255_2_005
10
4.6056524
20
-0.1253556
40
0.4098513
50
81.0583558
51
90.2615985
0
ARC
8
DEFAULT_255_2_005
10
4.5820747
20
0.7840987
40
0.2986337
50
269.4069555
51
287.8257136
0
ARC
8
DEFAULT_255_2_005
10
4.5958832
20
0.7339937
40
0.2467169
50
288.3349203
51
318.0316211
0
ARC
8
DEFAULT_255_2_005
10
4.5688932
20
0.7589734
40
0.2834893
50
317.9257319
51
348.457104
0
ARC
8
DEFAULT_255_2_005
10
4.4428199
20
0.7881276
40
0.4128599
50
347.9939851
51
0.3820773
0
ARC
8
DEFAULT_255_2_005
10
4.293901
20
0.793941
40
0.5617779
50
359.6878744
51
8.0091999
0
ARC
8
DEFAULT_255_2_005
10
4.5099402
20
0.8254768
40
0.3434537
50
7.821195
51
20.7460778
0
ARC
8
DEFAULT_255_2_005
10
4.6335364
20
0.8734685
40
0.2108745
50
20.4475461
51
43.5001827
0
ARC
8
DEFAULT_255_2_005
10
4.6342739
20
0.8673269
40
0.2146245
50
44.8251176
51
71.9702009
0
ARC
8
DEFAULT_255_2_005
10
4.5935757
20
0.7502165
40
0.3385897
50
71.5551475
51
84.7499938
0
ARC
8
DEFAULT_255_2_005
10
4.576202
20
0.5952933
40
0.4944627
50
84.3878728
51
90.1313674
0
LINE
8
DEFAULT_255_2_005
10
6.7259175
20
0.1396224
11
6.3422102
21
0.1396224
0
LINE
8
DEFAULT_255_2_005
10
6.3422102
20
0.1396224
11
6.3422102
21
-0.6043
0
LINE
8
DEFAULT_255_2_005
10
6.3422102
20
-0.6043
11
6.103372
21
-0.6043
0
LINE
8
DEFAULT_255_2_005
10
6.103372
20
-0.6043
11
6.103372
21
1.2959648
0
LINE
8
DEFAULT_255_2_005
10
6.103372
20
1.2959648
11
6.7089509
21
1.2959648
0
LINE
8
DEFAULT_255_2_005
10
6.3422102
20
1.0897548
11
6.3422102
21
0.3445273
0
LINE
8
DEFAULT_255_2_005
10
6.3422102
20
0.3445273
11
6.7089509
21
0.3445273
0
LINE
8
DEFAULT_255_2_005
10
6.710256
20
1.0897548
11
6.3422102
21
1.0897548
0
ARC
8
DEFAULT_255_2_005
10
6.7150329
20
0.583711
40
0.7122798
50
76.2184663
51
90.4892448
0
ARC
8
DEFAULT_255_2_005
10
6.7695109
20
0.7961912
40
0.4929442
50
43.8020396
51
76.4849321
0
ARC
8
DEFAULT_255_2_005
10
6.7365169
20
0.7701756
40
0.5347799
50
10.3313017
51
43.3669349
0
ARC
8
DEFAULT_255_2_005
10
6.5046107
20
0.7193779
40
0.7720818
50
359.6887202
51
10.953495
0
ARC
8
DEFAULT_255_2_005
10
6.441458
20
0.7092894
40
0.8352439
50
348.9275365
51
0.4043161
0
ARC
8
DEFAULT_255_2_005
10
6.7273312
20
0.6508839
40
0.5434808
50
329.2234973
51
349.1822667
0
ARC
8
DEFAULT_255_2_005
10
6.8107022
20
0.605988
40
0.4488968
50
315.7896588
51
328.701839
0
ARC
8
DEFAULT_255_2_005
10
6.7881243
20
0.6331257
40
0.4840174
50
284.5174422
51
315.3506646
0
ARC
8
DEFAULT_255_2_005
10
6.7211053
20
0.8685791
40
0.7287766
50
271.8470439
51
284.9779213
0
ARC
8
DEFAULT_255_2_005
10
6.7075556
20
1.0657602
40
0.9263198
50
271.1358189
51
272.2916022
0
ARC
8
DEFAULT_255_2_005
10
6.7124963
20
0.7693501
40
0.4248376
50
269.5218348
51
282.9267966
0
ARC
8
DEFAULT_255_2_005
10
6.7478716
20
0.6259023
40
0.2771218
50
282.4329467
51
314.2453117
0
ARC
8
DEFAULT_255_2_005
10
6.7517717
20
0.6189224
40
0.2694084
50
314.6868735
51
318.3278894
0
ARC
8
DEFAULT_255_2_005
10
6.7195333
20
0.6434329
40
0.3098014
50
318.9059992
51
343.5103971
0
ARC
8
DEFAULT_255_2_005
10
6.5600209
20
0.6935888
40
0.4769981
50
343.1720505
51
355.8491465
0
ARC
8
DEFAULT_255_2_005
10
6.371371
20
0.7116239
40
0.6664726
50
355.476656
51
0.0816023
0
ARC
8
DEFAULT_255_2_005
10
6.4935693
20
0.716331
40
0.5442865
50
359.6044104
51
11.6987691
0
ARC
8
DEFAULT_255_2_005
10
6.6646598
20
0.753555
40
0.3692066
50
11.4257425
51
34.1664887
0
ARC
8
DEFAULT_255_2_005
10
6.6988507
20
0.7733041
40
0.3298379
50
34.6634707
51
40.3022306
0
ARC
8
DEFAULT_255_2_005
10
6.7316823
20
0.8020271
40
0.2862214
50
40.1682547
51
84.6027982
0
ARC
8
DEFAULT_255_2_005
10
6.7110535
20
0.681111
40
0.4086445
50
83.3178112
51
90.1118138
0
LINE
8
DEFAULT_255_2_005
10
8.4408543
20
-0.6043
11
8.2907647
21
-0.1083518
0
LINE
8
DEFAULT_255_2_005
10
8.2907647
20
-0.1083518
11
7.6486423
21
-0.1083518
0
LINE
8
DEFAULT_255_2_005
10
7.6486423
20
-0.1083518
11
7.5011629
21
-0.6043
0
LINE
8
DEFAULT_255_2_005
10
7.5011629
20
-0.6043
11
7.2557991
21
-0.6043
0
LINE
8
DEFAULT_255_2_005
10
7.2557991
20
-0.6043
11
7.8679036
21
1.2959648
0
LINE
8
DEFAULT_255_2_005
10
7.8679036
20
1.2959648
11
8.0728085
21
1.2959648
0
LINE
8
DEFAULT_255_2_005
10
8.0728085
20
1.2959648
11
8.6862182
21
-0.6043
0
LINE
8
DEFAULT_255_2_005
10
8.6862182
20
-0.6043
11
8.4408543
21
-0.6043
0
LINE
8
DEFAULT_255_2_005
10
7.9697035
20
0.9618523
11
7.7112884
21
0.0978583
0
LINE
8
DEFAULT_255_2_005
10
7.7112884
20
0.0978583
11
8.2294238
21
0.0978583
0
LINE
8
DEFAULT_255_2_005
10
8.2294238
20
0.0978583
11
7.9697035
21
0.9618523
0
LINE
8
DEFAULT_255_2_005
10
10.1858091
20
1.2959648
11
10.1858091
21
-0.6043
0
LINE
8
DEFAULT_255_2_005
10
10.1858091
20
-0.6043
11
9.9456657
21
-0.6043
0
LINE
8
DEFAULT_255_2_005
10
9.9456657
20
-0.6043
11
9.1847767
21
0.8600524
0
LINE
8
DEFAULT_255_2_005
10
9.1847767
20
0.8600524
11
9.1847767
21
-0.6043
0
LINE
8
DEFAULT_255_2_005
10
9.1847767
20
-0.6043
11
8.9446333
21
-0.6043
0
LINE
8
DEFAULT_255_2_005
10
8.9446333
20
-0.6043
11
8.9446333
21
1.2959648
0
LINE
8
DEFAULT_255_2_005
10
8.9446333
20
1.2959648
11
9.1847767
21
1.2959648
0
LINE
8
DEFAULT_255_2_005
10
9.1847767
20
1.2959648
11
9.948276
21
-0.1749132
0
LINE
8
DEFAULT_255_2_005
10
9.948276
20
-0.1749132
11
9.948276
21
1.2959648
0
LINE
8
DEFAULT_255_2_005
10
9.948276
20
1.2959648
11
10.1858091
21
1.2959648
0
LINE
8
DEFAULT_255_2_005
10
11.5105129
20
0.4789554
11
11.5105129
21
0.2740504
0
LINE
8
DEFAULT_255_2_005
10
11.5105129
20
0.2740504
11
10.8383726
21
0.2740504
0
LINE
8
DEFAULT_255_2_005
10
10.8383726
20
0.2740504
11
10.8383726
21
-0.3993951
0
LINE
8
DEFAULT_255_2_005
10
10.8383726
20
-0.3993951
11
11.6214487
21
-0.3993951
0
LINE
8
DEFAULT_255_2_005
10
11.6214487
20
-0.3993951
11
11.6214487
21
-0.6043
0
LINE
8
DEFAULT_255_2_005
10
11.6214487
20
-0.6043
11
10.5995343
21
-0.6043
0
LINE
8
DEFAULT_255_2_005
10
10.5995343
20
-0.6043
11
10.5995343
21
1.2959648
0
LINE
8
DEFAULT_255_2_005
10
10.5995343
20
1.2959648
11
11.6083975
21
1.2959648
0
LINE
8
DEFAULT_255_2_005
10
11.6083975
20
1.2959648
11
11.6083975
21
1.0897548
0
LINE
8
DEFAULT_255_2_005
10
11.6083975
20
1.0897548
11
10.8383726
21
1.0897548
0
LINE
8
DEFAULT_255_2_005
10
10.8383726
20
1.0897548
11
10.8383726
21
0.4789554
0
LINE
8
DEFAULT_255_2_005
10
10.8383726
20
0.4789554
11
11.5105129
21
0.4789554
0
LINE
8
DEFAULT_255_2_005
10
12.1669918
20
1.2959648
11
12.1669918
21
-0.3993951
0
LINE
8
DEFAULT_255_2_005
10
12.1669918
20
-0.3993951
11
12.9122193
21
-0.3993951
0
LINE
8
DEFAULT_255_2_005
10
12.9122193
20
-0.3993951
11
12.9122193
21
-0.6043
0
LINE
8
DEFAULT_255_2_005
10
12.9122193
20
-0.6043
11
11.9268484
21
-0.6043
0
LINE
8
DEFAULT_255_2_005
10
11.9268484
20
-0.6043
11
11.9268484
21
1.2959648
0
LINE
8
DEFAULT_255_2_005
10
11.9268484
20
1.2959648
11
12.1669918
21
1.2959648
0
LINE
8
DEFAULT_255_2_778_8
10
0.2200502
20
12.6867082
11
14.5075502
21
12.6867082
0
LINE
8
DEFAULT_255_2_778_8
10
14.5075502
20
12.6867082
11
14.5075502
21
3.4263082
0
LINE
8
DEFAULT_255_2_778_8
10
14.5075502
20
3.4263082
11
0.2200502
21
3.4263082
0
LINE
8
DEFAULT_255_2_778_8
10
0.2200502
20
3.4263082
11
0.2200502
21
12.6867082
0
ENDSEC
0
EOF