0
SECTION
2
HEADER
9
$MEASUREMENT
70
1
0
ENDSEC
0
SECTION
2
TABLES
0
TABLE
2
LTYPE
0
LTYPE
72
65
70
64
2
CONTINUOUS
3
______
73
0
40
0
0
ENDTAB
0
TABLE
2
LAYER
0
LAYER
2
DEFAULT_255_1_388
70
0
62
255
6
CONTINUOUS
0
LAYER
2
DEFAULT_255_2_778
70
0
62
255
6
CONTINUOUS
0
ENDTAB
0
ENDSEC
0
SECTION
2
ENTITIES
0
LINE
8
DEFAULT_255_1_388
10
3.7189985
20
-0.5089852
11
3.7189985
21
-1.8309
0
LINE
8
DEFAULT_255_1_388
10
3.7189985
20
-1.8309
11
3.5509355
21
-1.8309
0
LINE
8
DEFAULT_255_1_388
10
3.5509355
20
-1.8309
11
3.5509355
21
-0.716805
0
LINE
8
DEFAULT_255_1_388
10
3.5509355
20
-0.716805
11
3.213906
21
-0.8405934
0
LINE
8
DEFAULT_255_1_388
10
3.213906
20
-0.8405934
11
3.213906
21
-0.6887945
0
LINE
8
DEFAULT_255_1_388
10
3.213906
20
-0.6887945
11
3.6927951
21
-0.5089852
0
LINE
8
DEFAULT_255_1_388
10
3.6927951
20
-0.5089852
11
3.7189985
21
-0.5089852
0
LINE
8
DEFAULT_255_1_388
10
4.0233318
20
10.9563382
11
4.0233318
21
10.8199
0
LINE
8
DEFAULT_255_1_388
10
4.0233318
20
10.8199
11
3.1613313
21
10.8199
0
LINE
8
DEFAULT_255_1_388
10
3.1613313
20
10.8199
11
3.1613313
21
10.9400741
0
LINE
8
DEFAULT_255_1_388
10
3.1613313
20
10.9400741
11
3.6167278
21
11.4460702
0
LINE
8
DEFAULT_255_1_388
10
3.3031909
20
11.7478607
11
3.1360315
21
11.7478607
0
LINE
8
DEFAULT_255_1_388
10
3.7152163
20
11.338546
11
3.3628262
21
10.9563382
0
LINE
8
DEFAULT_255_1_388
10
3.3628262
20
10.9563382
11
4.0233318
21
10.9563382
0
ARC
8
DEFAULT_255_1_388
10
2.0991337
20
12.7880983
40
2.0258655
50
318.5132526
51
320.7829045
0
ARC
8
DEFAULT_255_1_388
10
2.6939294
20
12.3039929
40
1.2589638
50
320.7372878
51
323.9739031
0
ARC
8
DEFAULT_255_1_388
10
3.1348226
20
11.9845554
40
0.7145141
50
323.8962701
51
328.64194
0
ARC
8
DEFAULT_255_1_388
10
3.3650484
20
11.8425545
40
0.4440242
50
328.8294576
51
331.7891185
0
ARC
8
DEFAULT_255_1_388
10
3.4772804
20
11.7846374
40
0.3177517
50
331.4254512
51
352.9365785
0
ARC
8
DEFAULT_255_1_388
10
3.4925804
20
11.781205
40
0.3021496
50
353.2257659
51
0.0166158
0
ARC
8
DEFAULT_255_1_388
10
3.5162564
20
11.7837894
40
0.2784847
50
359.486299
51
15.9343185
0
ARC
8
DEFAULT_255_1_388
10
3.5732831
20
11.7991269
40
0.2194403
50
16.1712913
51
43.5286088
0
ARC
8
DEFAULT_255_1_388
10
3.5819776
20
11.8078191
40
0.2071504
50
43.4417391
51
83.1661095
0
ARC
8
DEFAULT_255_1_388
10
3.5668937
20
11.7249316
40
0.2912888
50
82.160179
51
90.1505708
0
ARC
8
DEFAULT_255_1_388
10
3.5633418
20
11.6645279
40
0.3517025
50
89.5460741
51
102.5418361
0
ARC
8
DEFAULT_255_1_388
10
3.5360138
20
11.7804933
40
0.2325748
50
102.1738499
51
129.206123
0
ARC
8
DEFAULT_255_1_388
10
3.5271592
20
11.7944664
40
0.2161591
50
129.72865
51
135.753947
0
ARC
8
DEFAULT_255_1_388
10
3.5408074
20
11.7835728
40
0.2335433
50
136.1757367
51
166.3673339
0
ARC
8
DEFAULT_255_1_388
10
3.6540762
20
11.7532148
40
0.3507873
50
165.9090694
51
178.8684636
0
ARC
8
DEFAULT_255_1_388
10
3.7516534
20
11.7479263
40
0.4484624
50
178.4391136
51
180.0083808
0
ARC
8
DEFAULT_255_1_388
10
3.5937235
20
11.7523197
40
0.4577138
50
163.2878482
51
180.5581842
0
ARC
8
DEFAULT_255_1_388
10
3.5035276
20
11.7771393
40
0.3641968
50
133.4540601
51
162.947111
0
ARC
8
DEFAULT_255_1_388
10
3.5236158
20
11.7557789
40
0.3935189
50
100.7869829
51
133.4382499
0
ARC
8
DEFAULT_255_1_388
10
3.5627403
20
11.5815399
40
0.5720313
50
89.660664
51
101.3702276
0
ARC
8
DEFAULT_255_1_388
10
3.5702012
20
11.5884263
40
0.5651495
50
78.2172678
51
90.412935
0
ARC
8
DEFAULT_255_1_388
10
3.6101478
20
11.7711511
40
0.378122
50
55.9269121
51
78.4888449
0
ARC
8
DEFAULT_255_1_388
10
3.6322193
20
11.8092187
40
0.3342379
50
47.929771
51
55.4049217
0
ARC
8
DEFAULT_255_1_388
10
3.6436723
20
11.8208618
40
0.3179217
50
4.334829
51
48.0560205
0
ARC
8
DEFAULT_255_1_388
10
3.5204525
20
11.8017487
40
0.442341
50
359.9251713
51
5.5971671
0
ARC
8
DEFAULT_255_1_388
10
3.568668
20
11.8080728
40
0.3941854
50
337.8914027
51
358.9967534
0
ARC
8
DEFAULT_255_1_388
10
3.263425
20
11.9258295
40
0.7213271
50
326.9132501
51
338.3508308
0
ARC
8
DEFAULT_255_1_388
10
2.8150362
20
12.2132105
40
1.2538973
50
319.6471833
51
327.0959558
0
ARC
8
DEFAULT_255_1_388
10
2.383702
20
12.569005
40
1.8129975
50
317.2588228
51
319.9045804
0
LINE
8
DEFAULT_255_2_778
10
6.2177
20
-2.7781002
11
6.2177
21
13.0968998
0
ARC
8
DEFAULT_255_2_778
10
8.3412722
20
3.233768
40
0.7202677
50
226.8665118
51
269.4523317
0
ARC
8
DEFAULT_255_2_778
10
8.6364829
20
3.5867101
40
1.1799511
50
215.7418135
51
228.1229413
0
ARC
8
DEFAULT_255_2_778
10
9.0995252
20
3.9241879
40
1.7529183
50
207.0872194
51
215.854179
0
ARC
8
DEFAULT_255_2_778
10
9.7784043
20
4.2746344
40
2.5169103
50
200.4336322
51
207.1528364
0
ARC
8
DEFAULT_255_2_778
10
10.6747331
20
4.6104818
40
3.4740918
50
194.7851039
51
200.4631
0
ARC
8
DEFAULT_255_2_778
10
11.7567362
20
4.8977057
40
4.5935676
50
189.6933279
51
194.8049695
0
ARC
8
DEFAULT_255_2_778
10
12.9329343
20
5.0985142
40
5.7867842
50
184.1348748
51
189.692335
0
ARC
8
DEFAULT_255_2_778
10
13.6611863
20
5.1578667
40
6.5174239
50
179.9866679
51
184.1936679
0
ARC
8
DEFAULT_255_2_778
10
13.492909
20
5.1662561
40
6.3491502
50
172.9363907
51
180.0620218
0
ARC
8
DEFAULT_255_2_778
10
12.3399914
20
5.3076841
40
5.1875917
50
167.761812
51
172.920695
0
ARC
8
DEFAULT_255_2_778
10
11.1980632
20
5.5559543
40
4.0189866
50
162.4925236
51
167.7698905
0
ARC
8
DEFAULT_255_2_778
10
10.2036923
20
5.8710994
40
2.9758723
50
156.3858279
51
162.5196705
0
ARC
8
DEFAULT_255_2_778
10
9.4093231
20
6.2203308
40
2.108128
50
148.7504114
51
156.4342888
0
ARC
8
DEFAULT_255_2_778
10
8.8416274
20
6.5668567
40
1.4430309
50
138.7144875
51
148.8198363
0
ARC
8
DEFAULT_255_2_778
10
8.4826408
20
6.8863193
40
0.9624974
50
123.0315232
51
138.9044195
0
ARC
8
DEFAULT_255_2_778
10
8.3346285
20
7.1158406
40
0.6893927
50
90.0200262
51
123.1165389
0
ARC
8
DEFAULT_255_2_778
10
4.0942029
20
3.233768
40
0.7202677
50
270.5476683
51
313.1334882
0
ARC
8
DEFAULT_255_2_778
10
3.7989921
20
3.5867101
40
1.1799511
50
311.8770587
51
324.2581865
0
ARC
8
DEFAULT_255_2_778
10
3.3359498
20
3.9241879
40
1.7529183
50
324.145821
51
332.9127806
0
ARC
8
DEFAULT_255_2_778
10
2.6570708
20
4.2746344
40
2.5169103
50
332.8471636
51
339.5663678
0
ARC
8
DEFAULT_255_2_778
10
1.7607419
20
4.6104818
40
3.4740918
50
339.5369
51
345.2148961
0
ARC
8
DEFAULT_255_2_778
10
0.6787389
20
4.8977057
40
4.5935676
50
345.1950305
51
350.3066721
0
ARC
8
DEFAULT_255_2_778
10
-0.4974592
20
5.0985142
40
5.7867842
50
350.307665
51
355.8651252
0
ARC
8
DEFAULT_255_2_778
10
-1.2257113
20
5.1578667
40
6.5174239
50
355.8063321
51
0.0133321
0
ARC
8
DEFAULT_255_2_778
10
-1.0574339
20
5.1662561
40
6.3491502
50
359.9379782
51
7.0636093
0
ARC
8
DEFAULT_255_2_778
10
0.0954836
20
5.3076841
40
5.1875917
50
7.079305
51
12.238188
0
ARC
8
DEFAULT_255_2_778
10
1.2374119
20
5.5559543
40
4.0189866
50
12.2301095
51
17.5074764
0
ARC
8
DEFAULT_255_2_778
10
2.2317828
20
5.8710994
40
2.9758723
50
17.4803295
51
23.6141721
0
ARC
8
DEFAULT_255_2_778
10
3.0261519
20
6.2203308
40
2.108128
50
23.5657112
51
31.2495886
0
ARC
8
DEFAULT_255_2_778
10
3.5938477
20
6.5668567
40
1.4430309
50
31.1801637
51
41.2855125
0
ARC
8
DEFAULT_255_2_778
10
3.9528342
20
6.8863193
40
0.9624974
50
41.0955805
51
56.9684768
0
ARC
8
DEFAULT_255_2_778
10
4.1008466
20
7.1158406
40
0.6893927
50
56.8834611
51
89.9799738
0
LINE
8
DEFAULT_255_2_778
10
3.5718667
20
2.5135333
11
8.8635667
21
7.8052333
0
LINE
8
DEFAULT_255_2_778
10
8.8635667
20
7.8052333
11
8.0697667
21
5.9531333
0
LINE
8
DEFAULT_255_2_778
10
8.0697667
20
5.9531333
11
7.0114667
21
7.0115333
0
LINE
8
DEFAULT_255_2_778
10
7.0114667
20
7.0115333
11
8.8635667
21
7.8052333
0
ENDSEC
0
EOF