0
SECTION
2
HEADER
9
$MEASUREMENT
70
1
0
ENDSEC
0
SECTION
2
TABLES
0
TABLE
2
LTYPE
0
LTYPE
72
65
70
64
2
CONTINUOUS
3
______
73
0
40
0
0
ENDTAB
0
TABLE
2
LAYER
0
LAYER
2
DEFAULT_255_2_778
70
0
62
255
6
CONTINUOUS
0
LAYER
2
DEFAULT_255_1_388
70
0
62
255
6
CONTINUOUS
0
ENDTAB
0
ENDSEC
0
SECTION
2
ENTITIES
0
ARC
8
DEFAULT_255_2_778
10
6.4849335
20
3.8335198
40
1.3202532
50
328.7968675
51
0.1300552
0
ARC
8
DEFAULT_255_2_778
10
6.4857931
20
3.8330864
40
1.3192936
50
277.5665172
51
328.7936255
0
ARC
8
DEFAULT_255_2_778
10
6.4826877
20
3.8598074
40
1.3461909
50
269.9827905
51
277.547783
0
ARC
8
DEFAULT_255_2_778
10
6.4792865
20
3.8338665
40
1.3202532
50
238.7968675
51
270.1300552
0
ARC
8
DEFAULT_255_2_778
10
6.4788532
20
3.8330069
40
1.3192936
50
187.5665172
51
238.7936255
0
ARC
8
DEFAULT_255_2_778
10
6.5055742
20
3.8361123
40
1.3461909
50
179.9827905
51
187.547783
0
ARC
8
DEFAULT_255_2_778
10
6.4796332
20
3.8395135
40
1.3202532
50
148.7968675
51
180.1300552
0
ARC
8
DEFAULT_255_2_778
10
6.4787736
20
3.8399468
40
1.3192936
50
97.5665172
51
148.7936255
0
ARC
8
DEFAULT_255_2_778
10
6.481879
20
3.8132258
40
1.3461909
50
89.9827905
51
97.547783
0
ARC
8
DEFAULT_255_2_778
10
6.4852802
20
3.8391668
40
1.3202532
50
58.7968675
51
90.1300552
0
ARC
8
DEFAULT_255_2_778
10
6.4857136
20
3.8400264
40
1.3192936
50
7.5665172
51
58.7936255
0
ARC
8
DEFAULT_255_2_778
10
6.4589926
20
3.836921
40
1.3461909
50
359.9827905
51
7.547783
0
LINE
8
DEFAULT_255_2_778
10
7.8051834
20
3.8365166
11
7.8051834
21
3.8365166
0
LINE
8
DEFAULT_255_2_778
10
6.4823
20
1.9843499
11
6.4823
21
-2.7781501
0
LINE
8
DEFAULT_255_2_778
10
6.4823
20
5.1593499
11
6.4823
21
13.0968499
0
LINE
8
DEFAULT_255_2_778
10
4.3656334
20
4.1010333
11
6.4823334
21
1.9843333
0
LINE
8
DEFAULT_255_2_778
10
6.4823334
20
1.9843333
11
8.5989334
21
4.1010333
0
LINE
8
DEFAULT_255_1_388
10
3.9835985
20
-0.5089852
11
3.9835985
21
-1.8309
0
LINE
8
DEFAULT_255_1_388
10
3.9835985
20
-1.8309
11
3.8155355
21
-1.8309
0
LINE
8
DEFAULT_255_1_388
10
3.8155355
20
-1.8309
11
3.8155355
21
-0.716805
0
LINE
8
DEFAULT_255_1_388
10
3.8155355
20
-0.716805
11
3.478506
21
-0.8405934
0
LINE
8
DEFAULT_255_1_388
10
3.478506
20
-0.8405934
11
3.478506
21
-0.6887945
0
LINE
8
DEFAULT_255_1_388
10
3.478506
20
-0.6887945
11
3.9573951
21
-0.5089852
0
LINE
8
DEFAULT_255_1_388
10
3.9573951
20
-0.5089852
11
3.9835985
21
-0.5089852
0
LINE
8
DEFAULT_255_1_388
10
4.2879318
20
10.9563382
11
4.2879318
21
10.8199
0
LINE
8
DEFAULT_255_1_388
10
4.2879318
20
10.8199
11
3.4259313
21
10.8199
0
LINE
8
DEFAULT_255_1_388
10
3.4259313
20
10.8199
11
3.4259313
21
10.9400741
0
LINE
8
DEFAULT_255_1_388
10
3.4259313
20
10.9400741
11
3.8813278
21
11.4460702
0
LINE
8
DEFAULT_255_1_388
10
3.5677909
20
11.7478607
11
3.4006315
21
11.7478607
0
LINE
8
DEFAULT_255_1_388
10
3.9798163
20
11.338546
11
3.6274262
21
10.9563382
0
LINE
8
DEFAULT_255_1_388
10
3.6274262
20
10.9563382
11
4.2879318
21
10.9563382
0
ARC
8
DEFAULT_255_1_388
10
2.3637337
20
12.7880983
40
2.0258655
50
318.5132526
51
320.7829045
0
ARC
8
DEFAULT_255_1_388
10
2.9585294
20
12.3039929
40
1.2589638
50
320.7372878
51
323.9739031
0
ARC
8
DEFAULT_255_1_388
10
3.3994226
20
11.9845554
40
0.7145141
50
323.8962701
51
328.64194
0
ARC
8
DEFAULT_255_1_388
10
3.6296484
20
11.8425545
40
0.4440242
50
328.8294576
51
331.7891185
0
ARC
8
DEFAULT_255_1_388
10
3.7418804
20
11.7846374
40
0.3177517
50
331.4254512
51
352.9365785
0
ARC
8
DEFAULT_255_1_388
10
3.7571804
20
11.781205
40
0.3021496
50
353.2257659
51
0.0166158
0
ARC
8
DEFAULT_255_1_388
10
3.7808564
20
11.7837894
40
0.2784847
50
359.486299
51
15.9343185
0
ARC
8
DEFAULT_255_1_388
10
3.8378831
20
11.7991269
40
0.2194403
50
16.1712913
51
43.5286088
0
ARC
8
DEFAULT_255_1_388
10
3.8465776
20
11.8078191
40
0.2071504
50
43.4417391
51
83.1661095
0
ARC
8
DEFAULT_255_1_388
10
3.8314937
20
11.7249316
40
0.2912888
50
82.160179
51
90.1505708
0
ARC
8
DEFAULT_255_1_388
10
3.8279418
20
11.6645279
40
0.3517025
50
89.5460741
51
102.5418361
0
ARC
8
DEFAULT_255_1_388
10
3.8006138
20
11.7804933
40
0.2325748
50
102.1738499
51
129.206123
0
ARC
8
DEFAULT_255_1_388
10
3.7917592
20
11.7944664
40
0.2161591
50
129.72865
51
135.753947
0
ARC
8
DEFAULT_255_1_388
10
3.8054074
20
11.7835728
40
0.2335433
50
136.1757367
51
166.3673339
0
ARC
8
DEFAULT_255_1_388
10
3.9186762
20
11.7532148
40
0.3507873
50
165.9090694
51
178.8684636
0
ARC
8
DEFAULT_255_1_388
10
4.0162534
20
11.7479263
40
0.4484624
50
178.4391136
51
180.0083808
0
ARC
8
DEFAULT_255_1_388
10
3.8583235
20
11.7523197
40
0.4577138
50
163.2878482
51
180.5581842
0
ARC
8
DEFAULT_255_1_388
10
3.7681276
20
11.7771393
40
0.3641968
50
133.4540601
51
162.947111
0
ARC
8
DEFAULT_255_1_388
10
3.7882158
20
11.7557789
40
0.3935189
50
100.7869829
51
133.4382499
0
ARC
8
DEFAULT_255_1_388
10
3.8273403
20
11.5815399
40
0.5720313
50
89.660664
51
101.3702276
0
ARC
8
DEFAULT_255_1_388
10
3.8348012
20
11.5884263
40
0.5651495
50
78.2172678
51
90.412935
0
ARC
8
DEFAULT_255_1_388
10
3.8747478
20
11.7711511
40
0.378122
50
55.9269121
51
78.4888449
0
ARC
8
DEFAULT_255_1_388
10
3.8968193
20
11.8092187
40
0.3342379
50
47.929771
51
55.4049217
0
ARC
8
DEFAULT_255_1_388
10
3.9082723
20
11.8208618
40
0.3179217
50
4.334829
51
48.0560205
0
ARC
8
DEFAULT_255_1_388
10
3.7850525
20
11.8017487
40
0.442341
50
359.9251713
51
5.5971671
0
ARC
8
DEFAULT_255_1_388
10
3.833268
20
11.8080728
40
0.3941854
50
337.8914027
51
358.9967534
0
ARC
8
DEFAULT_255_1_388
10
3.528025
20
11.9258295
40
0.7213271
50
326.9132501
51
338.3508308
0
ARC
8
DEFAULT_255_1_388
10
3.0796362
20
12.2132105
40
1.2538973
50
319.6471833
51
327.0959558
0
ARC
8
DEFAULT_255_1_388
10
2.648302
20
12.569005
40
1.8129975
50
317.2588228
51
319.9045804
0
ENDSEC
0
EOF