0
SECTION
2
HEADER
9
$MEASUREMENT
70
1
0
ENDSEC
0
SECTION
2
TABLES
0
TABLE
2
LTYPE
0
LTYPE
72
65
70
64
2
CONTINUOUS
3
______
73
0
40
0
0
ENDTAB
0
TABLE
2
LAYER
0
LAYER
2
DEFAULT_255_2_778
70
0
62
255
6
CONTINUOUS
0
LAYER
2
DEFAULT_255_1_234
70
0
62
255
6
CONTINUOUS
0
ENDTAB
0
ENDSEC
0
SECTION
2
ENTITIES
0
ARC
8
DEFAULT_255_2_778
10
6.4713332
20
4.6332135
40
1.3202532
50
148.7968675
51
180.1300552
0
ARC
8
DEFAULT_255_2_778
10
6.4704736
20
4.6336468
40
1.3192936
50
97.5665172
51
148.7936255
0
ARC
8
DEFAULT_255_2_778
10
6.473579
20
4.6069258
40
1.3461909
50
89.9827905
51
97.547783
0
ARC
8
DEFAULT_255_2_778
10
6.4769802
20
4.6328668
40
1.3202532
50
58.7968675
51
90.1300552
0
ARC
8
DEFAULT_255_2_778
10
6.4774136
20
4.6337264
40
1.3192936
50
7.5665172
51
58.7936255
0
ARC
8
DEFAULT_255_2_778
10
6.4506926
20
4.630621
40
1.3461909
50
359.9827905
51
7.547783
0
ARC
8
DEFAULT_255_2_778
10
6.4766335
20
4.6272198
40
1.3202532
50
328.7968675
51
0.1300552
0
ARC
8
DEFAULT_255_2_778
10
6.4774931
20
4.6267864
40
1.3192936
50
277.5665172
51
328.7936255
0
ARC
8
DEFAULT_255_2_778
10
6.4743877
20
4.6535074
40
1.3461909
50
269.9827905
51
277.547783
0
ARC
8
DEFAULT_255_2_778
10
6.4709865
20
4.6275665
40
1.3202532
50
238.7968675
51
270.1300552
0
ARC
8
DEFAULT_255_2_778
10
6.4705532
20
4.6267069
40
1.3192936
50
187.5665172
51
238.7936255
0
ARC
8
DEFAULT_255_2_778
10
6.4972742
20
4.6298123
40
1.3461909
50
179.9827905
51
187.547783
0
LINE
8
DEFAULT_255_2_778
10
5.1510834
20
4.6302166
11
5.1510834
21
4.6302166
0
LINE
8
DEFAULT_255_2_778
10
4.3573334
20
4.4978875
11
6.4740334
21
6.4822875
0
LINE
8
DEFAULT_255_2_778
10
6.4740334
20
6.4822875
11
8.5906334
21
4.4978875
0
LINE
8
DEFAULT_255_2_778
10
6.474
20
3.3073666
11
6.474
21
-4.1009334
0
LINE
8
DEFAULT_255_2_778
10
6.474
20
6.4823166
11
6.474
21
9.1281166
0
LINE
8
DEFAULT_255_2_778
10
5.1510834
20
9.1282
11
7.7968834
21
9.1282
0
LINE
8
DEFAULT_255_1_234
10
3.9602137
20
-1.9902567
11
3.9602137
21
-3.1653
0
LINE
8
DEFAULT_255_1_234
10
3.9602137
20
-3.1653
11
3.8108234
21
-3.1653
0
LINE
8
DEFAULT_255_1_234
10
3.8108234
20
-3.1653
11
3.8108234
21
-2.1749867
0
LINE
8
DEFAULT_255_1_234
10
3.8108234
20
-2.1749867
11
3.5112396
21
-2.2850215
0
LINE
8
DEFAULT_255_1_234
10
3.5112396
20
-2.2850215
11
3.5112396
21
-2.1500883
0
LINE
8
DEFAULT_255_1_234
10
3.5112396
20
-2.1500883
11
3.9369217
21
-1.9902567
0
LINE
8
DEFAULT_255_1_234
10
3.9369217
20
-1.9902567
11
3.9602137
21
-1.9902567
0
ENDSEC
0
EOF