0
SECTION
2
HEADER
9
$MEASUREMENT
70
1
0
ENDSEC
0
SECTION
2
TABLES
0
TABLE
2
LTYPE
0
LTYPE
72
65
70
64
2
CONTINUOUS
3
______
73
0
40
0
0
ENDTAB
0
TABLE
2
LAYER
0
LAYER
2
DEFAULT_255_2_778
70
0
62
255
6
CONTINUOUS
0
LAYER
2
DEFAULT_255_1_234
70
0
62
255
6
CONTINUOUS
0
ENDTAB
0
ENDSEC
0
SECTION
2
ENTITIES
0
LINE
8
DEFAULT_255_2_778
10
3.5636667
20
-2.7780834
11
4.8865667
21
-0.1322834
0
LINE
8
DEFAULT_255_2_778
10
4.8865667
20
-0.1322834
11
7.5323667
21
-0.1322834
0
LINE
8
DEFAULT_255_2_778
10
7.5323667
20
-0.1322834
11
8.8553667
21
-2.7780834
0
LINE
8
DEFAULT_255_2_778
10
8.8553667
20
-2.7780834
11
3.5636667
21
-2.7780834
0
LINE
8
DEFAULT_255_2_778
10
3.5636667
20
-0.1322834
11
4.8865667
21
2.5135166
0
LINE
8
DEFAULT_255_2_778
10
4.8865667
20
2.5135166
11
7.5323667
21
2.5135166
0
LINE
8
DEFAULT_255_2_778
10
7.5323667
20
2.5135166
11
8.8553667
21
-0.1322834
0
LINE
8
DEFAULT_255_2_778
10
8.8553667
20
-0.1322834
11
3.5636667
21
-0.1322834
0
LINE
8
DEFAULT_255_2_778
10
6.2095
20
7.8051333
11
6.2095
21
2.5134333
0
LINE
8
DEFAULT_255_1_234
10
3.6955137
20
6.6911433
11
3.6955137
21
5.5161
0
LINE
8
DEFAULT_255_1_234
10
3.6955137
20
5.5161
11
3.5461234
21
5.5161
0
LINE
8
DEFAULT_255_1_234
10
3.5461234
20
5.5161
11
3.5461234
21
6.5064133
0
LINE
8
DEFAULT_255_1_234
10
3.5461234
20
6.5064133
11
3.2465396
21
6.3963785
0
LINE
8
DEFAULT_255_1_234
10
3.2465396
20
6.3963785
11
3.2465396
21
6.5313117
0
LINE
8
DEFAULT_255_1_234
10
3.2465396
20
6.5313117
11
3.6722217
21
6.6911433
0
LINE
8
DEFAULT_255_1_234
10
3.6722217
20
6.6911433
11
3.6955137
21
6.6911433
0
ENDSEC
0
EOF