0
SECTION
2
HEADER
9
$MEASUREMENT
70
1
0
ENDSEC
0
SECTION
2
TABLES
0
TABLE
2
LTYPE
0
LTYPE
72
65
70
64
2
CONTINUOUS
3
______
73
0
40
0
0
ENDTAB
0
TABLE
2
LAYER
0
LAYER
2
DEFAULT_255_2_778
70
0
62
255
6
CONTINUOUS
0
LAYER
2
DEFAULT_255_1_234
70
0
62
255
6
CONTINUOUS
0
ENDTAB
0
ENDSEC
0
SECTION
2
ENTITIES
0
LINE
8
DEFAULT_255_2_778
10
11.5095501
20
2.5134831
11
3.5720501
21
2.5134831
0
LINE
8
DEFAULT_255_2_778
10
3.5720501
20
2.5134831
11
3.5720501
21
15.7426831
0
LINE
8
DEFAULT_255_2_778
10
3.5720501
20
15.7426831
11
11.5095501
21
15.7426831
0
LINE
8
DEFAULT_255_2_778
10
11.5095501
20
15.7426831
11
11.5095501
21
2.5134831
0
ARC
8
DEFAULT_255_2_778
10
6.2204335
20
6.4793198
40
1.3202532
50
328.7968675
51
0.1300552
0
ARC
8
DEFAULT_255_2_778
10
6.2212931
20
6.4788864
40
1.3192936
50
277.5665172
51
328.7936255
0
ARC
8
DEFAULT_255_2_778
10
6.2181877
20
6.5056074
40
1.3461909
50
269.9827905
51
277.547783
0
ARC
8
DEFAULT_255_2_778
10
6.2147865
20
6.4796665
40
1.3202532
50
238.7968675
51
270.1300552
0
ARC
8
DEFAULT_255_2_778
10
6.2143532
20
6.4788069
40
1.3192936
50
187.5665172
51
238.7936255
0
ARC
8
DEFAULT_255_2_778
10
6.2410742
20
6.4819123
40
1.3461909
50
179.9827905
51
187.547783
0
ARC
8
DEFAULT_255_2_778
10
6.2151332
20
6.4853135
40
1.3202532
50
148.7968675
51
180.1300552
0
ARC
8
DEFAULT_255_2_778
10
6.2142736
20
6.4857468
40
1.3192936
50
97.5665172
51
148.7936255
0
ARC
8
DEFAULT_255_2_778
10
6.217379
20
6.4590258
40
1.3461909
50
89.9827905
51
97.547783
0
ARC
8
DEFAULT_255_2_778
10
6.2207802
20
6.4849668
40
1.3202532
50
58.7968675
51
90.1300552
0
ARC
8
DEFAULT_255_2_778
10
6.2212136
20
6.4858264
40
1.3192936
50
7.5665172
51
58.7936255
0
ARC
8
DEFAULT_255_2_778
10
6.1944926
20
6.482721
40
1.3461909
50
359.9827905
51
7.547783
0
LINE
8
DEFAULT_255_2_778
10
7.5406834
20
6.4823166
11
7.5406834
21
6.4823166
0
LINE
8
DEFAULT_255_2_778
10
6.2178
20
4.6301666
11
6.2178
21
-2.7781334
0
LINE
8
DEFAULT_255_2_778
10
6.2178
20
7.8051831
11
6.2178
21
21.0343831
0
LINE
8
DEFAULT_255_2_778
10
4.1011334
20
6.7468333
11
6.2178334
21
4.6301333
0
LINE
8
DEFAULT_255_2_778
10
6.2178334
20
4.6301333
11
8.3344334
21
6.7468333
0
LINE
8
DEFAULT_255_2_778
10
6.2178
20
8.8305031
11
4.6303
21
9.2081031
0
LINE
8
DEFAULT_255_2_778
10
4.6303
20
9.2081031
11
7.7722
21
9.9253031
0
LINE
8
DEFAULT_255_2_778
10
7.7722
20
9.9253031
11
4.6303
21
10.6051031
0
LINE
8
DEFAULT_255_2_778
10
4.6303
20
10.6051031
11
7.8053
21
11.3223031
0
LINE
8
DEFAULT_255_2_778
10
7.8053
20
11.3223031
11
4.6303
21
12.0396031
0
LINE
8
DEFAULT_255_2_778
10
4.6303
20
12.0396031
11
7.8053
21
12.7193031
0
LINE
8
DEFAULT_255_2_778
10
7.8053
20
12.7193031
11
6.1847
21
13.0969031
0
LINE
8
DEFAULT_255_2_778
10
8.8636771
20
-2.7780855
11
8.8636771
21
3.8365145
0
LINE
8
DEFAULT_255_2_778
10
8.8636771
20
3.8365145
11
7.2100771
21
5.4901145
0
LINE
8
DEFAULT_255_1_234
10
3.8199137
20
-0.6658567
11
3.8199137
21
-1.8409
0
LINE
8
DEFAULT_255_1_234
10
3.8199137
20
-1.8409
11
3.6705234
21
-1.8409
0
LINE
8
DEFAULT_255_1_234
10
3.6705234
20
-1.8409
11
3.6705234
21
-0.8505867
0
LINE
8
DEFAULT_255_1_234
10
3.6705234
20
-0.8505867
11
3.3709396
21
-0.9606215
0
LINE
8
DEFAULT_255_1_234
10
3.3709396
20
-0.9606215
11
3.3709396
21
-0.8256883
0
LINE
8
DEFAULT_255_1_234
10
3.3709396
20
-0.8256883
11
3.7966217
21
-0.6658567
0
LINE
8
DEFAULT_255_1_234
10
3.7966217
20
-0.6658567
11
3.8199137
21
-0.6658567
0
LINE
8
DEFAULT_255_1_234
10
5.0214618
20
-1.7196208
11
5.0214618
21
-1.8409
0
LINE
8
DEFAULT_255_1_234
10
5.0214618
20
-1.8409
11
4.2552339
21
-1.8409
0
LINE
8
DEFAULT_255_1_234
10
4.2552339
20
-1.8409
11
4.2552339
21
-1.7340779
0
LINE
8
DEFAULT_255_1_234
10
4.2552339
20
-1.7340779
11
4.6600335
21
-1.2843005
0
LINE
8
DEFAULT_255_1_234
10
4.3813322
20
-1.0160405
11
4.2327451
21
-1.0160405
0
LINE
8
DEFAULT_255_1_234
10
4.7475795
20
-1.3798782
11
4.4343417
21
-1.7196208
0
LINE
8
DEFAULT_255_1_234
10
4.4343417
20
-1.7196208
11
5.0214618
21
-1.7196208
0
ARC
8
DEFAULT_255_1_234
10
3.3110169
20
-0.0913473
40
1.8008286
50
318.5132453
51
320.7828378
0
ARC
8
DEFAULT_255_1_234
10
3.8397143
20
-0.5216574
40
1.1191493
50
320.7372736
51
323.9737074
0
ARC
8
DEFAULT_255_1_234
10
4.2317
20
-0.8056639
40
0.6350923
50
323.8961724
51
328.6421089
0
ARC
8
DEFAULT_255_1_234
10
4.4363595
20
-0.9318969
40
0.3946393
50
328.8299013
51
331.789948
0
ARC
8
DEFAULT_255_1_234
10
4.5360774
20
-0.9833491
40
0.2824501
50
331.4255242
51
352.9364833
0
ARC
8
DEFAULT_255_1_234
10
4.5497274
20
-0.9864024
40
0.2685315
50
353.2248685
51
0.0169286
0
ARC
8
DEFAULT_255_1_234
10
4.5707151
20
-0.984105
40
0.2475536
50
359.4866256
51
15.9339782
0
ARC
8
DEFAULT_255_1_234
10
4.6214136
20
-0.9704714
40
0.1950618
50
16.1714718
51
43.5284424
0
ARC
8
DEFAULT_255_1_234
10
4.6291445
20
-0.9627427
40
0.184134
50
43.4415429
51
83.1661404
0
ARC
8
DEFAULT_255_1_234
10
4.6157363
20
-1.0364229
40
0.258926
50
82.160215
51
90.1505798
0
ARC
8
DEFAULT_255_1_234
10
4.612579
20
-1.0901135
40
0.3126255
50
89.5460705
51
102.5418777
0
ARC
8
DEFAULT_255_1_234
10
4.5882876
20
-0.9870335
40
0.2067346
50
102.1739365
51
129.2061916
0
ARC
8
DEFAULT_255_1_234
10
4.5803948
20
-0.9745906
40
0.1921118
50
129.7279328
51
135.7542026
0
ARC
8
DEFAULT_255_1_234
10
4.5925476
20
-0.9842955
40
0.2075944
50
136.175737
51
166.3674722
0
ARC
8
DEFAULT_255_1_234
10
4.6932395
20
-1.0112818
40
0.3118201
50
165.9092917
51
178.8683903
0
ARC
8
DEFAULT_255_1_234
10
4.7797256
20
-1.0159821
40
0.3983935
50
178.438168
51
180.0083905
0
ARC
8
DEFAULT_255_1_234
10
4.6395859
20
-1.0120769
40
0.4068601
50
163.2878735
51
180.5581814
0
ARC
8
DEFAULT_255_1_234
10
4.559412
20
-0.990016
40
0.3237344
50
133.454115
51
162.9470031
0
ARC
8
DEFAULT_255_1_234
10
4.5772661
20
-1.009
40
0.349795
50
100.7869394
51
133.4384016
0
ARC
8
DEFAULT_255_1_234
10
4.6120433
20
-1.1638681
40
0.5084616
50
89.6605301
51
101.3704185
0
ARC
8
DEFAULT_255_1_234
10
4.6186772
20
-1.1577504
40
0.502348
50
78.2171172
51
90.4130393
0
ARC
8
DEFAULT_255_1_234
10
4.654185
20
-0.9953363
40
0.3361092
50
55.9268222
51
78.4888551
0
ARC
8
DEFAULT_255_1_234
10
4.673829
20
-0.9614676
40
0.2970617
50
47.9292255
51
55.4054003
0
ARC
8
DEFAULT_255_1_234
10
4.6839851
20
-0.9511498
40
0.2825983
50
4.3347696
51
48.0560701
0
ARC
8
DEFAULT_255_1_234
10
4.5744244
20
-0.9681399
40
0.393225
50
359.925209
51
5.5967654
0
ARC
8
DEFAULT_255_1_234
10
4.6173136
20
-0.9625184
40
0.3503892
50
337.8914096
51
358.9967724
0
ARC
8
DEFAULT_255_1_234
10
4.3459548
20
-0.8578294
40
0.6412172
50
326.9135351
51
338.3505194
0
ARC
8
DEFAULT_255_1_234
10
3.9473852
20
-0.6023716
40
1.1146189
50
319.6472867
51
327.095818
0
ARC
8
DEFAULT_255_1_234
10
3.5640855
20
-0.2862
40
1.6114559
50
317.2586784
51
319.9046139
0
LINE
8
DEFAULT_255_1_234
10
5.6672135
20
-0.6658567
11
5.6672135
21
-1.8409
0
LINE
8
DEFAULT_255_1_234
10
5.6672135
20
-1.8409
11
5.5178232
21
-1.8409
0
LINE
8
DEFAULT_255_1_234
10
5.5178232
20
-1.8409
11
5.5178232
21
-0.8505867
0
LINE
8
DEFAULT_255_1_234
10
5.5178232
20
-0.8505867
11
5.2182394
21
-0.9606215
0
LINE
8
DEFAULT_255_1_234
10
5.2182394
20
-0.9606215
11
5.2182394
21
-0.8256883
0
LINE
8
DEFAULT_255_1_234
10
5.2182394
20
-0.8256883
11
5.6439215
21
-0.6658567
0
LINE
8
DEFAULT_255_1_234
10
5.6439215
20
-0.6658567
11
5.6672135
21
-0.6658567
0
LINE
8
DEFAULT_255_1_234
10
3.9732119
20
18.8654792
11
3.9732119
21
18.7442
0
LINE
8
DEFAULT_255_1_234
10
3.9732119
20
18.7442
11
3.206984
21
18.7442
0
LINE
8
DEFAULT_255_1_234
10
3.206984
20
18.7442
11
3.206984
21
18.8510221
0
LINE
8
DEFAULT_255_1_234
10
3.206984
20
18.8510221
11
3.6117836
21
19.3007995
0
LINE
8
DEFAULT_255_1_234
10
3.3330823
20
19.5690595
11
3.1844952
21
19.5690595
0
LINE
8
DEFAULT_255_1_234
10
3.6993296
20
19.2052218
11
3.3860918
21
18.8654792
0
LINE
8
DEFAULT_255_1_234
10
3.3860918
20
18.8654792
11
3.9732119
21
18.8654792
0
ARC
8
DEFAULT_255_1_234
10
2.262767
20
20.4937527
40
1.8008286
50
318.5132453
51
320.7828378
0
ARC
8
DEFAULT_255_1_234
10
2.7914644
20
20.0634426
40
1.1191493
50
320.7372736
51
323.9737074
0
ARC
8
DEFAULT_255_1_234
10
3.1834501
20
19.7794361
40
0.6350923
50
323.8961724
51
328.6421089
0
ARC
8
DEFAULT_255_1_234
10
3.3881096
20
19.6532031
40
0.3946393
50
328.8299013
51
331.789948
0
ARC
8
DEFAULT_255_1_234
10
3.4878274
20
19.6017509
40
0.2824501
50
331.4255242
51
352.9364833
0
ARC
8
DEFAULT_255_1_234
10
3.5014775
20
19.5986976
40
0.2685315
50
353.2248685
51
0.0169286
0
ARC
8
DEFAULT_255_1_234
10
3.5224652
20
19.600995
40
0.2475536
50
359.4866256
51
15.9339782
0
ARC
8
DEFAULT_255_1_234
10
3.5731637
20
19.6146286
40
0.1950618
50
16.1714718
51
43.5284424
0
ARC
8
DEFAULT_255_1_234
10
3.5808946
20
19.6223573
40
0.184134
50
43.4415429
51
83.1661404
0
ARC
8
DEFAULT_255_1_234
10
3.5674864
20
19.5486771
40
0.258926
50
82.160215
51
90.1505798
0
ARC
8
DEFAULT_255_1_234
10
3.5643291
20
19.4949865
40
0.3126255
50
89.5460705
51
102.5418777
0
ARC
8
DEFAULT_255_1_234
10
3.5400377
20
19.5980665
40
0.2067346
50
102.1739365
51
129.2061916
0
ARC
8
DEFAULT_255_1_234
10
3.5321449
20
19.6105094
40
0.1921118
50
129.7279328
51
135.7542026
0
ARC
8
DEFAULT_255_1_234
10
3.5442977
20
19.6008045
40
0.2075944
50
136.175737
51
166.3674722
0
ARC
8
DEFAULT_255_1_234
10
3.6449896
20
19.5738182
40
0.3118201
50
165.9092917
51
178.8683903
0
ARC
8
DEFAULT_255_1_234
10
3.7314757
20
19.5691179
40
0.3983935
50
178.438168
51
180.0083905
0
ARC
8
DEFAULT_255_1_234
10
3.5913359
20
19.5730231
40
0.4068601
50
163.2878735
51
180.5581814
0
ARC
8
DEFAULT_255_1_234
10
3.5111621
20
19.595084
40
0.3237344
50
133.454115
51
162.9470031
0
ARC
8
DEFAULT_255_1_234
10
3.5290162
20
19.5761
40
0.349795
50
100.7869394
51
133.4384016
0
ARC
8
DEFAULT_255_1_234
10
3.5637934
20
19.4212319
40
0.5084616
50
89.6605301
51
101.3704185
0
ARC
8
DEFAULT_255_1_234
10
3.5704273
20
19.4273496
40
0.502348
50
78.2171172
51
90.4130393
0
ARC
8
DEFAULT_255_1_234
10
3.6059351
20
19.5897637
40
0.3361092
50
55.9268222
51
78.4888551
0
ARC
8
DEFAULT_255_1_234
10
3.6255791
20
19.6236324
40
0.2970617
50
47.9292255
51
55.4054003
0
ARC
8
DEFAULT_255_1_234
10
3.6357352
20
19.6339502
40
0.2825983
50
4.3347696
51
48.0560701
0
ARC
8
DEFAULT_255_1_234
10
3.5261745
20
19.6169601
40
0.393225
50
359.925209
51
5.5967654
0
ARC
8
DEFAULT_255_1_234
10
3.5690637
20
19.6225816
40
0.3503892
50
337.8914096
51
358.9967724
0
ARC
8
DEFAULT_255_1_234
10
3.2977049
20
19.7272706
40
0.6412172
50
326.9135351
51
338.3505194
0
ARC
8
DEFAULT_255_1_234
10
2.8991353
20
19.9827284
40
1.1146189
50
319.6472867
51
327.095818
0
ARC
8
DEFAULT_255_1_234
10
2.5158356
20
20.2989
40
1.6114559
50
317.2586784
51
319.9046139
0
ENDSEC
0
EOF