0
SECTION
2
HEADER
9
$MEASUREMENT
70
1
0
ENDSEC
0
SECTION
2
TABLES
0
TABLE
2
LTYPE
0
LTYPE
72
65
70
64
2
CONTINUOUS
3
______
73
0
40
0
0
ENDTAB
0
TABLE
2
LAYER
0
LAYER
2
DEFAULT_255_2_778
70
0
62
255
6
CONTINUOUS
0
LAYER
2
DEFAULT_255_1_388
70
0
62
255
6
CONTINUOUS
0
ENDTAB
0
ENDSEC
0
SECTION
2
ENTITIES
0
ARC
8
DEFAULT_255_2_778
10
7.5628059
20
6.4861294
40
3.9990575
50
164.958672
51
180.0541499
0
ARC
8
DEFAULT_255_2_778
10
7.5144844
20
6.4957887
40
3.9498864
50
139.5324886
51
164.9120823
0
ARC
8
DEFAULT_255_2_778
10
7.5231121
20
6.4925868
40
3.9585294
50
107.8307628
51
139.5782791
0
ARC
8
DEFAULT_255_2_778
10
7.5259531
20
6.4700154
40
3.9808888
50
91.6628438
51
107.7702122
0
ARC
8
DEFAULT_255_2_778
10
7.5323728
20
6.3702686
40
4.0807814
50
89.9989151
51
91.7123026
0
ARC
8
DEFAULT_255_2_778
10
7.5362333
20
6.451708
40
3.9993437
50
74.9592121
51
90.0541994
0
ARC
8
DEFAULT_255_2_778
10
7.5459483
20
6.5002176
40
3.9499763
50
49.5331489
51
74.9127022
0
ARC
8
DEFAULT_255_2_778
10
7.5428326
20
6.4916957
40
3.958483
50
17.8308607
51
49.5788931
0
ARC
8
DEFAULT_255_2_778
10
7.520235
20
6.4888475
40
3.9808695
50
1.662844
51
17.7702931
0
ARC
8
DEFAULT_255_2_778
10
7.4204688
20
6.4824272
40
4.0807814
50
359.9989151
51
1.7123026
0
ARC
8
DEFAULT_255_2_778
10
7.5019193
20
6.478566
40
3.9993326
50
344.9591794
51
0.05421
0
ARC
8
DEFAULT_255_2_778
10
7.5504606
20
6.4688458
40
3.9499331
50
319.5327264
51
344.9126214
0
ARC
8
DEFAULT_255_2_778
10
7.5418769
20
6.4720261
40
3.9585286
50
287.8301403
51
319.57834
0
ARC
8
DEFAULT_255_2_778
10
7.5389544
20
6.4948298
40
3.9811341
50
271.6627163
51
287.7696917
0
ARC
8
DEFAULT_255_2_778
10
7.5325274
20
6.5947019
40
4.0811521
50
269.9989151
51
271.7122237
0
ARC
8
DEFAULT_255_2_778
10
7.5286699
20
6.5125946
40
3.9990465
50
254.9586392
51
270.0541605
0
ARC
8
DEFAULT_255_2_778
10
7.5190055
20
6.4642414
40
3.9498431
50
229.5320661
51
254.9120015
0
ARC
8
DEFAULT_255_2_778
10
7.5222719
20
6.4729308
40
3.958575
50
197.8300424
51
229.577726
0
ARC
8
DEFAULT_255_2_778
10
7.5450494
20
6.4758462
40
3.9811535
50
181.6627161
51
197.7696108
0
ARC
8
DEFAULT_255_2_778
10
7.6449021
20
6.4822726
40
4.0811521
50
179.9989151
51
181.7122237
0
LINE
8
DEFAULT_255_2_778
10
3.5637501
20
6.4823499
11
3.5637501
21
6.4823499
0
LINE
8
DEFAULT_255_2_778
10
10.3105751
20
3.7042249
11
4.7543751
21
9.2604249
0
LINE
8
DEFAULT_255_2_778
10
4.7543751
20
9.2604249
11
6.3418751
21
6.4823249
0
LINE
8
DEFAULT_255_2_778
10
6.3418751
20
6.4823249
11
7.5324751
21
7.6729249
0
LINE
8
DEFAULT_255_2_778
10
7.5324751
20
7.6729249
11
4.7543751
21
9.2604249
0
LINE
8
DEFAULT_255_2_778
10
6.2096
20
2.712052
11
6.2096
21
-2.778048
0
LINE
8
DEFAULT_255_2_778
10
8.8554
20
2.712052
11
8.8554
21
-2.778048
0
LINE
8
DEFAULT_255_1_388
10
3.7203985
20
-0.5084852
11
3.7203985
21
-1.8304
0
LINE
8
DEFAULT_255_1_388
10
3.7203985
20
-1.8304
11
3.5523355
21
-1.8304
0
LINE
8
DEFAULT_255_1_388
10
3.5523355
20
-1.8304
11
3.5523355
21
-0.716305
0
LINE
8
DEFAULT_255_1_388
10
3.5523355
20
-0.716305
11
3.215306
21
-0.8400934
0
LINE
8
DEFAULT_255_1_388
10
3.215306
20
-0.8400934
11
3.215306
21
-0.6882945
0
LINE
8
DEFAULT_255_1_388
10
3.215306
20
-0.6882945
11
3.6941951
21
-0.5084852
0
LINE
8
DEFAULT_255_1_388
10
3.6941951
20
-0.5084852
11
3.7203985
21
-0.5084852
0
LINE
8
DEFAULT_255_1_388
10
5.0721309
20
-1.6939618
11
5.0721309
21
-1.8304
0
LINE
8
DEFAULT_255_1_388
10
5.0721309
20
-1.8304
11
4.2101304
21
-1.8304
0
LINE
8
DEFAULT_255_1_388
10
4.2101304
20
-1.8304
11
4.2101304
21
-1.7102259
0
LINE
8
DEFAULT_255_1_388
10
4.2101304
20
-1.7102259
11
4.6655269
21
-1.2042298
0
LINE
8
DEFAULT_255_1_388
10
4.35199
20
-0.9024393
11
4.1848306
21
-0.9024393
0
LINE
8
DEFAULT_255_1_388
10
4.7640154
20
-1.311754
11
4.4116253
21
-1.6939618
0
LINE
8
DEFAULT_255_1_388
10
4.4116253
20
-1.6939618
11
5.0721309
21
-1.6939618
0
ARC
8
DEFAULT_255_1_388
10
3.1479329
20
0.1377983
40
2.0258655
50
318.5132526
51
320.7829045
0
ARC
8
DEFAULT_255_1_388
10
3.7427286
20
-0.3463071
40
1.2589638
50
320.7372878
51
323.9739031
0
ARC
8
DEFAULT_255_1_388
10
4.1836217
20
-0.6657446
40
0.7145141
50
323.8962701
51
328.64194
0
ARC
8
DEFAULT_255_1_388
10
4.4138475
20
-0.8077455
40
0.4440242
50
328.8294576
51
331.7891185
0
ARC
8
DEFAULT_255_1_388
10
4.5260795
20
-0.8656626
40
0.3177517
50
331.4254512
51
352.9365785
0
ARC
8
DEFAULT_255_1_388
10
4.5413795
20
-0.869095
40
0.3021496
50
353.2257659
51
0.0166158
0
ARC
8
DEFAULT_255_1_388
10
4.5650555
20
-0.8665106
40
0.2784847
50
359.486299
51
15.9343185
0
ARC
8
DEFAULT_255_1_388
10
4.6220822
20
-0.8511731
40
0.2194403
50
16.1712913
51
43.5286088
0
ARC
8
DEFAULT_255_1_388
10
4.6307767
20
-0.8424809
40
0.2071504
50
43.4417391
51
83.1661095
0
ARC
8
DEFAULT_255_1_388
10
4.6156928
20
-0.9253684
40
0.2912888
50
82.160179
51
90.1505708
0
ARC
8
DEFAULT_255_1_388
10
4.612141
20
-0.9857721
40
0.3517025
50
89.5460741
51
102.5418361
0
ARC
8
DEFAULT_255_1_388
10
4.584813
20
-0.8698067
40
0.2325748
50
102.1738499
51
129.206123
0
ARC
8
DEFAULT_255_1_388
10
4.5759583
20
-0.8558336
40
0.2161591
50
129.72865
51
135.753947
0
ARC
8
DEFAULT_255_1_388
10
4.5896065
20
-0.8667272
40
0.2335433
50
136.1757367
51
166.3673339
0
ARC
8
DEFAULT_255_1_388
10
4.7028754
20
-0.8970852
40
0.3507873
50
165.9090694
51
178.8684636
0
ARC
8
DEFAULT_255_1_388
10
4.8004525
20
-0.9023737
40
0.4484624
50
178.4391136
51
180.0083808
0
ARC
8
DEFAULT_255_1_388
10
4.6425227
20
-0.8979803
40
0.4577138
50
163.2878482
51
180.5581842
0
ARC
8
DEFAULT_255_1_388
10
4.5523268
20
-0.8731607
40
0.3641968
50
133.4540601
51
162.947111
0
ARC
8
DEFAULT_255_1_388
10
4.5724149
20
-0.8945211
40
0.3935189
50
100.7869829
51
133.4382499
0
ARC
8
DEFAULT_255_1_388
10
4.6115394
20
-1.0687601
40
0.5720313
50
89.660664
51
101.3702276
0
ARC
8
DEFAULT_255_1_388
10
4.6190003
20
-1.0618737
40
0.5651495
50
78.2172678
51
90.412935
0
ARC
8
DEFAULT_255_1_388
10
4.6589469
20
-0.8791489
40
0.378122
50
55.9269121
51
78.4888449
0
ARC
8
DEFAULT_255_1_388
10
4.6810184
20
-0.8410813
40
0.3342379
50
47.929771
51
55.4049217
0
ARC
8
DEFAULT_255_1_388
10
4.6924715
20
-0.8294382
40
0.3179217
50
4.334829
51
48.0560205
0
ARC
8
DEFAULT_255_1_388
10
4.5692516
20
-0.8485513
40
0.442341
50
359.9251713
51
5.5971671
0
ARC
8
DEFAULT_255_1_388
10
4.6174671
20
-0.8422272
40
0.3941854
50
337.8914027
51
358.9967534
0
ARC
8
DEFAULT_255_1_388
10
4.3122241
20
-0.7244705
40
0.7213271
50
326.9132501
51
338.3508308
0
ARC
8
DEFAULT_255_1_388
10
3.8638353
20
-0.4370895
40
1.2538973
50
319.6471833
51
327.0959558
0
ARC
8
DEFAULT_255_1_388
10
3.4325011
20
-0.081295
40
1.8129975
50
317.2588228
51
319.9045804
0
ENDSEC
0
EOF