0
SECTION
2
HEADER
9
$MEASUREMENT
70
1
0
ENDSEC
0
SECTION
2
TABLES
0
TABLE
2
LTYPE
0
LTYPE
72
65
70
64
2
CONTINUOUS
3
______
73
0
40
0
0
ENDTAB
0
TABLE
2
LAYER
0
LAYER
2
DEFAULT_255_2_778
70
0
62
255
6
CONTINUOUS
0
LAYER
2
DEFAULT_255_1_388
70
0
62
255
6
CONTINUOUS
0
ENDTAB
0
ENDSEC
0
SECTION
2
ENTITIES
0
LINE
8
DEFAULT_255_2_778
10
3.5636667
20
-2.7781667
11
4.8865667
21
-1.4551667
0
LINE
8
DEFAULT_255_2_778
10
4.8865667
20
-1.4551667
11
3.5636667
21
-0.1322667
0
LINE
8
DEFAULT_255_2_778
10
3.5636667
20
-0.1322667
11
6.2094667
21
2.5135333
0
LINE
8
DEFAULT_255_2_778
10
6.2094667
20
2.5135333
11
8.8553667
21
-0.1322667
0
LINE
8
DEFAULT_255_2_778
10
8.8553667
20
-0.1322667
11
7.5323667
21
-1.4551667
0
LINE
8
DEFAULT_255_2_778
10
7.5323667
20
-1.4551667
11
8.8553667
21
-2.7781667
0
LINE
8
DEFAULT_255_2_778
10
6.2095
20
7.8051333
11
6.2095
21
2.5134333
0
LINE
8
DEFAULT_255_1_388
10
3.7110985
20
6.8495148
11
3.7110985
21
5.5276
0
LINE
8
DEFAULT_255_1_388
10
3.7110985
20
5.5276
11
3.5430355
21
5.5276
0
LINE
8
DEFAULT_255_1_388
10
3.5430355
20
5.5276
11
3.5430355
21
6.641695
0
LINE
8
DEFAULT_255_1_388
10
3.5430355
20
6.641695
11
3.206006
21
6.5179066
0
LINE
8
DEFAULT_255_1_388
10
3.206006
20
6.5179066
11
3.206006
21
6.6697055
0
LINE
8
DEFAULT_255_1_388
10
3.206006
20
6.6697055
11
3.6848951
21
6.8495148
0
LINE
8
DEFAULT_255_1_388
10
3.6848951
20
6.8495148
11
3.7110985
21
6.8495148
0
ENDSEC
0
EOF