0
SECTION
2
HEADER
9
$MEASUREMENT
70
1
0
ENDSEC
0
SECTION
2
TABLES
0
TABLE
2
LTYPE
0
LTYPE
72
65
70
64
2
CONTINUOUS
3
______
73
0
40
0
0
ENDTAB
0
TABLE
2
LAYER
0
LAYER
2
DEFAULT_255_2_778
70
0
62
255
6
CONTINUOUS
0
LAYER
2
DEFAULT_255_1_234
70
0
62
255
6
CONTINUOUS
0
ENDTAB
0
ENDSEC
0
SECTION
2
ENTITIES
0
ARC
8
DEFAULT_255_2_778
10
4.69206
20
4.9252196
40
0.6919314
50
270.5902049
51
312.4946644
0
ARC
8
DEFAULT_255_2_778
10
4.4080883
20
5.2717775
40
1.1395597
50
311.2514953
51
323.62805
0
ARC
8
DEFAULT_255_2_778
10
3.9660068
20
5.6024594
40
1.6916244
50
323.4893651
51
331.8738857
0
ARC
8
DEFAULT_255_2_778
10
3.3155391
20
5.9523364
40
2.4302175
50
331.8285911
51
338.4955126
0
ARC
8
DEFAULT_255_2_778
10
2.4216097
20
6.3064481
40
3.3917281
50
338.4656082
51
344.0361341
0
ARC
8
DEFAULT_255_2_778
10
1.3087995
20
6.6265985
40
4.5496747
50
344.01414
51
348.8907142
0
ARC
8
DEFAULT_255_2_778
10
0.0859936
20
6.8683999
40
5.7961578
50
348.8743147
51
353.4457059
0
ARC
8
DEFAULT_255_2_778
10
-1.1216378
20
7.0046903
40
7.0114536
50
353.4656864
51
0.0550332
0
ARC
8
DEFAULT_255_2_778
10
-1.1223932
20
7.0181338
40
7.0122089
50
359.9451825
51
6.5249496
0
ARC
8
DEFAULT_255_2_778
10
0.111526
20
7.1580472
40
5.7703833
50
6.5369681
51
11.3284567
0
ARC
8
DEFAULT_255_2_778
10
1.3633089
20
7.4095111
40
4.4935929
50
11.3198756
51
16.223318
0
ARC
8
DEFAULT_255_2_778
10
2.4654571
20
7.7314537
40
3.3453873
50
16.2027213
51
21.7828614
0
ARC
8
DEFAULT_255_2_778
10
3.3531205
20
8.0879114
40
2.3888286
50
21.7444273
51
28.5886309
0
ARC
8
DEFAULT_255_2_778
10
4.0054851
20
8.4453662
40
1.6449541
50
28.5292366
51
37.3800242
0
ARC
8
DEFAULT_255_2_778
10
4.4359464
20
8.777168
40
1.1014641
50
37.2590359
51
49.9620362
0
ARC
8
DEFAULT_255_2_778
10
4.6933772
20
9.1031565
40
0.6863932
50
48.9091156
51
89.5149834
0
ARC
8
DEFAULT_255_2_778
10
8.410515
20
4.9252196
40
0.6919314
50
227.5053356
51
269.4097951
0
ARC
8
DEFAULT_255_2_778
10
8.6944867
20
5.2717775
40
1.1395597
50
216.37195
51
228.7485047
0
ARC
8
DEFAULT_255_2_778
10
9.1365682
20
5.6024594
40
1.6916244
50
208.1261143
51
216.5106349
0
ARC
8
DEFAULT_255_2_778
10
9.7870359
20
5.9523364
40
2.4302175
50
201.5044874
51
208.1714089
0
ARC
8
DEFAULT_255_2_778
10
10.6809654
20
6.3064481
40
3.3917281
50
195.9638659
51
201.5343918
0
ARC
8
DEFAULT_255_2_778
10
11.7937755
20
6.6265985
40
4.5496747
50
191.1092858
51
195.98586
0
ARC
8
DEFAULT_255_2_778
10
13.0165814
20
6.8683999
40
5.7961578
50
186.5542941
51
191.1256853
0
ARC
8
DEFAULT_255_2_778
10
14.2242129
20
7.0046903
40
7.0114536
50
179.9449668
51
186.5343136
0
ARC
8
DEFAULT_255_2_778
10
14.2249682
20
7.0181338
40
7.0122089
50
173.4750504
51
180.0548175
0
ARC
8
DEFAULT_255_2_778
10
12.991049
20
7.1580472
40
5.7703833
50
168.6715433
51
173.4630319
0
ARC
8
DEFAULT_255_2_778
10
11.7392662
20
7.4095111
40
4.4935929
50
163.776682
51
168.6801244
0
ARC
8
DEFAULT_255_2_778
10
10.6371179
20
7.7314537
40
3.3453873
50
158.2171386
51
163.7972787
0
ARC
8
DEFAULT_255_2_778
10
9.7494546
20
8.0879114
40
2.3888286
50
151.4113691
51
158.2555727
0
ARC
8
DEFAULT_255_2_778
10
9.0970899
20
8.4453662
40
1.6449541
50
142.6199758
51
151.4707634
0
ARC
8
DEFAULT_255_2_778
10
8.6666286
20
8.777168
40
1.1014641
50
130.0379638
51
142.7409641
0
ARC
8
DEFAULT_255_2_778
10
8.4091979
20
9.1031565
40
0.6863932
50
90.4850166
51
131.0908844
0
LINE
8
DEFAULT_255_2_778
10
7.5985667
20
-2.1166417
11
6.5401667
21
-3.4395417
0
LINE
8
DEFAULT_255_2_778
10
6.5401667
20
-3.4395417
11
5.4818667
21
-2.1166417
0
LINE
8
DEFAULT_255_2_778
10
5.4818667
20
-2.1166417
11
7.5985667
21
-2.1166417
0
LINE
8
DEFAULT_255_2_778
10
7.5985667
20
-2.1166417
11
7.5985667
21
-2.1166417
0
LINE
8
DEFAULT_255_2_778
10
5.4818667
20
3.1750333
11
7.5985667
21
3.1750333
0
LINE
8
DEFAULT_255_2_778
10
7.5985667
20
3.1750333
11
7.5985667
21
-2.1166667
0
LINE
8
DEFAULT_255_2_778
10
7.5985667
20
-2.1166667
11
5.4818667
21
-2.1166667
0
LINE
8
DEFAULT_255_2_778
10
5.4818667
20
-2.1166667
11
5.4818667
21
3.1750333
0
LINE
8
DEFAULT_255_2_778
10
6.5402
20
13.7583665
11
6.5402
21
3.1750665
0
LINE
8
DEFAULT_255_2_778
10
5.4818333
20
-0.7938
11
6.5401333
21
-0.7938
0
LINE
8
DEFAULT_255_2_778
10
5.4818333
20
1.8521
11
6.5401333
21
1.8521
0
LINE
8
DEFAULT_255_2_778
10
7.5984333
20
0.5292
11
6.5401333
21
0.5292
0
LINE
8
DEFAULT_255_2_778
10
4.5352195
20
9.5250723
11
8.5246195
21
4.5481723
0
LINE
8
DEFAULT_255_2_778
10
8.5246195
20
4.5481723
11
7.8040195
21
6.5276723
0
LINE
8
DEFAULT_255_2_778
10
7.8040195
20
6.5276723
11
6.8791195
21
5.6304723
0
LINE
8
DEFAULT_255_2_778
10
6.8791195
20
5.6304723
11
8.5246195
21
4.5481723
0
LINE
8
DEFAULT_255_1_234
10
4.0263137
20
12.6448433
11
4.0263137
21
11.4698
0
LINE
8
DEFAULT_255_1_234
10
4.0263137
20
11.4698
11
3.8769234
21
11.4698
0
LINE
8
DEFAULT_255_1_234
10
3.8769234
20
11.4698
11
3.8769234
21
12.4601133
0
LINE
8
DEFAULT_255_1_234
10
3.8769234
20
12.4601133
11
3.5773396
21
12.3500785
0
LINE
8
DEFAULT_255_1_234
10
3.5773396
20
12.3500785
11
3.5773396
21
12.4850117
0
LINE
8
DEFAULT_255_1_234
10
3.5773396
20
12.4850117
11
4.0030217
21
12.6448433
0
LINE
8
DEFAULT_255_1_234
10
4.0030217
20
12.6448433
11
4.0263137
21
12.6448433
0
ENDSEC
0
EOF