0
SECTION
2
HEADER
9
$MEASUREMENT
70
1
0
ENDSEC
0
SECTION
2
TABLES
0
TABLE
2
LTYPE
0
LTYPE
72
65
70
64
2
CONTINUOUS
3
______
73
0
40
0
0
ENDTAB
0
TABLE
2
LAYER
0
LAYER
2
DEFAULT_255_2_778
70
0
62
255
6
CONTINUOUS
0
LAYER
2
DEFAULT_255_1_234
70
0
62
255
6
CONTINUOUS
0
ENDTAB
0
ENDSEC
0
SECTION
2
ENTITIES
0
LINE
8
DEFAULT_255_2_778
10
8.0615667
20
-2.1167417
11
7.0031667
21
-3.4396417
0
LINE
8
DEFAULT_255_2_778
10
7.0031667
20
-3.4396417
11
5.9448667
21
-2.1167417
0
LINE
8
DEFAULT_255_2_778
10
5.9448667
20
-2.1167417
11
8.0615667
21
-2.1167417
0
LINE
8
DEFAULT_255_2_778
10
8.0615667
20
-2.1167417
11
8.0615667
21
-2.1167417
0
LINE
8
DEFAULT_255_2_778
10
5.9448667
20
3.1749333
11
8.0615667
21
3.1749333
0
LINE
8
DEFAULT_255_2_778
10
8.0615667
20
3.1749333
11
8.0615667
21
-2.1167667
0
LINE
8
DEFAULT_255_2_778
10
8.0615667
20
-2.1167667
11
5.9448667
21
-2.1167667
0
LINE
8
DEFAULT_255_2_778
10
5.9448667
20
-2.1167667
11
5.9448667
21
3.1749333
0
LINE
8
DEFAULT_255_2_778
10
7.0032
20
8.4666583
11
7.0032
21
3.9687583
0
LINE
8
DEFAULT_255_2_778
10
5.9448333
20
-0.7938
11
7.0031333
21
-0.7938
0
LINE
8
DEFAULT_255_2_778
10
5.9448333
20
1.852
11
7.0031333
21
1.852
0
LINE
8
DEFAULT_255_2_778
10
8.0615333
20
0.5291
11
7.0032333
21
0.5291
0
LINE
8
DEFAULT_255_2_778
10
5.9448667
20
3.968675
11
8.0615667
21
3.968675
0
LINE
8
DEFAULT_255_2_778
10
8.0615667
20
3.968675
11
8.0615667
21
3.174975
0
LINE
8
DEFAULT_255_2_778
10
8.0615667
20
3.174975
11
5.9448667
21
3.174975
0
LINE
8
DEFAULT_255_2_778
10
5.9448667
20
3.174975
11
5.9448667
21
3.968675
0
LINE
8
DEFAULT_255_1_234
10
4.4893137
20
7.3525433
11
4.4893137
21
6.1775
0
LINE
8
DEFAULT_255_1_234
10
4.4893137
20
6.1775
11
4.3399234
21
6.1775
0
LINE
8
DEFAULT_255_1_234
10
4.3399234
20
6.1775
11
4.3399234
21
7.1678133
0
LINE
8
DEFAULT_255_1_234
10
4.3399234
20
7.1678133
11
4.0403396
21
7.0577785
0
LINE
8
DEFAULT_255_1_234
10
4.0403396
20
7.0577785
11
4.0403396
21
7.1927117
0
LINE
8
DEFAULT_255_1_234
10
4.0403396
20
7.1927117
11
4.4660217
21
7.3525433
0
LINE
8
DEFAULT_255_1_234
10
4.4660217
20
7.3525433
11
4.4893137
21
7.3525433
0
ENDSEC
0
EOF