0
SECTION
2
HEADER
9
$MEASUREMENT
70
1
0
ENDSEC
0
SECTION
2
TABLES
0
TABLE
2
LTYPE
0
LTYPE
72
65
70
64
2
CONTINUOUS
3
______
73
0
40
0
0
ENDTAB
0
TABLE
2
LAYER
0
LAYER
2
DEFAULT_255_2_778
70
0
62
255
6
CONTINUOUS
0
LAYER
2
DEFAULT_255_1_234
70
0
62
255
6
CONTINUOUS
0
ENDTAB
0
ENDSEC
0
SECTION
2
ENTITIES
0
ARC
8
DEFAULT_255_2_778
10
10.0126623
20
-0.1523024
40
1.9426155
50
144.0648113
51
179.4090548
0
ARC
8
DEFAULT_255_2_778
10
10.6585001
20
-0.5808612
40
2.7172352
50
130.6115584
51
144.7401409
0
ARC
8
DEFAULT_255_2_778
10
11.1947663
20
-1.1976052
40
3.5345051
50
119.7131958
51
130.7030753
0
ARC
8
DEFAULT_255_2_778
10
11.6137601
20
-1.9220763
40
4.3714015
50
110.5861532
51
119.7762804
0
ARC
8
DEFAULT_255_2_778
10
11.883795
20
-2.6336067
40
5.1324459
50
101.9241305
51
110.6152517
0
ARC
8
DEFAULT_255_2_778
10
12.013981
20
-3.2391476
40
5.7518194
50
93.2807584
51
101.9466661
0
ARC
8
DEFAULT_255_2_778
10
12.0381405
20
-3.5587953
40
6.0723286
50
89.9933043
51
93.3357376
0
ARC
8
DEFAULT_255_2_778
10
12.0442107
20
-3.4262195
40
5.9397552
50
81.3526342
51
90.0517093
0
ARC
8
DEFAULT_255_2_778
10
12.1286129
20
-2.8843076
40
5.3913138
50
72.7529719
51
81.3735155
0
ARC
8
DEFAULT_255_2_778
10
12.3472969
20
-2.1895548
40
4.6629633
50
63.5393571
51
72.7881417
0
ARC
8
DEFAULT_255_2_778
10
12.7207827
20
-1.4448789
40
3.8298812
50
53.3946149
51
63.5774265
0
ARC
8
DEFAULT_255_2_778
10
13.2207659
20
-0.7786205
40
2.9968972
50
40.7967295
51
53.4725636
0
ARC
8
DEFAULT_255_2_778
10
13.7885536
20
-0.2968448
40
2.2522907
50
22.3062356
51
40.9559742
0
ARC
8
DEFAULT_255_2_778
10
14.1644025
20
-0.135262
40
1.84325
50
0.0931043
51
22.0937641
0
ARC
8
DEFAULT_255_2_778
10
14.0650683
20
-0.1122236
40
1.9426852
50
324.0653642
51
359.4088545
0
ARC
8
DEFAULT_255_2_778
10
13.4191783
20
0.316357
40
2.7173605
50
310.6124793
51
324.7407797
0
ARC
8
DEFAULT_255_2_778
10
12.8829199
20
0.9330729
40
3.5346041
50
299.7141019
51
310.7039814
0
ARC
8
DEFAULT_255_2_778
10
12.4639251
20
1.6575213
40
4.3714814
50
290.5869399
51
299.7771701
0
ARC
8
DEFAULT_255_2_778
10
12.1939045
20
2.3689938
40
5.1324665
50
281.9246317
51
290.6159997
0
ARC
8
DEFAULT_255_2_778
10
12.063722
20
2.9745009
40
5.7518062
50
273.2808921
51
281.9471488
0
ARC
8
DEFAULT_255_2_778
10
12.0395602
20
3.2942015
40
6.0723682
50
269.9933002
51
273.3358575
0
ARC
8
DEFAULT_255_2_778
10
12.033493
20
3.1606804
40
5.9388495
50
261.3516281
51
270.0516838
0
ARC
8
DEFAULT_255_2_778
10
11.9491357
20
2.6191445
40
5.3907866
50
252.7513814
51
261.372538
0
ARC
8
DEFAULT_255_2_778
10
11.7305339
20
1.9247195
40
4.6627731
50
243.5374883
51
252.7865342
0
ARC
8
DEFAULT_255_2_778
10
11.3571334
20
1.1802679
40
3.8299295
50
233.392809
51
243.5755038
0
ARC
8
DEFAULT_255_2_778
10
10.8571906
20
0.514105
40
2.9970462
50
220.7953561
51
233.470721
0
ARC
8
DEFAULT_255_2_778
10
10.2893857
20
0.0323397
40
2.2524333
50
202.3057235
51
220.9546222
0
ARC
8
DEFAULT_255_2_778
10
9.9134608
20
-0.1292673
40
1.8433131
50
180.0932326
51
202.0933484
0
LINE
8
DEFAULT_255_2_778
10
8.0701501
20
-0.1322667
11
8.0701501
21
-0.1322667
0
LINE
8
DEFAULT_255_2_778
10
2.7785335
20
-0.1322417
11
10.7160335
21
-0.1322417
0
LINE
8
DEFAULT_255_2_778
10
10.7160335
20
-0.1322417
11
13.3618335
21
1.1906583
0
LINE
8
DEFAULT_255_2_778
10
10.7160335
20
-1.4551417
11
13.3618335
21
-0.1322417
0
LINE
8
DEFAULT_255_2_778
10
13.3618335
20
-0.1322417
11
21.2993335
21
-0.1322417
0
LINE
8
DEFAULT_255_1_234
10
4.4807137
20
1.9790433
11
4.4807137
21
0.804
0
LINE
8
DEFAULT_255_1_234
10
4.4807137
20
0.804
11
4.3313234
21
0.804
0
LINE
8
DEFAULT_255_1_234
10
4.3313234
20
0.804
11
4.3313234
21
1.7943133
0
LINE
8
DEFAULT_255_1_234
10
4.3313234
20
1.7943133
11
4.0317396
21
1.6842785
0
LINE
8
DEFAULT_255_1_234
10
4.0317396
20
1.6842785
11
4.0317396
21
1.8192117
0
LINE
8
DEFAULT_255_1_234
10
4.0317396
20
1.8192117
11
4.4574217
21
1.9790433
0
LINE
8
DEFAULT_255_1_234
10
4.4574217
20
1.9790433
11
4.4807137
21
1.9790433
0
LINE
8
DEFAULT_255_1_234
10
19.0559119
20
0.9252792
11
19.0559119
21
0.804
0
LINE
8
DEFAULT_255_1_234
10
19.0559119
20
0.804
11
18.289684
21
0.804
0
LINE
8
DEFAULT_255_1_234
10
18.289684
20
0.804
11
18.289684
21
0.9108221
0
LINE
8
DEFAULT_255_1_234
10
18.289684
20
0.9108221
11
18.6944836
21
1.3605995
0
LINE
8
DEFAULT_255_1_234
10
18.4157823
20
1.6288595
11
18.2671952
21
1.6288595
0
LINE
8
DEFAULT_255_1_234
10
18.7820296
20
1.2650218
11
18.4687918
21
0.9252792
0
LINE
8
DEFAULT_255_1_234
10
18.4687918
20
0.9252792
11
19.0559119
21
0.9252792
0
ARC
8
DEFAULT_255_1_234
10
17.345467
20
2.5535527
40
1.8008286
50
318.5132453
51
320.7828378
0
ARC
8
DEFAULT_255_1_234
10
17.8741644
20
2.1232426
40
1.1191493
50
320.7372736
51
323.9737074
0
ARC
8
DEFAULT_255_1_234
10
18.2661501
20
1.8392361
40
0.6350923
50
323.8961724
51
328.6421089
0
ARC
8
DEFAULT_255_1_234
10
18.4708096
20
1.7130031
40
0.3946393
50
328.8299013
51
331.789948
0
ARC
8
DEFAULT_255_1_234
10
18.5705274
20
1.6615509
40
0.2824501
50
331.4255242
51
352.9364833
0
ARC
8
DEFAULT_255_1_234
10
18.5841775
20
1.6584976
40
0.2685315
50
353.2248685
51
0.0169286
0
ARC
8
DEFAULT_255_1_234
10
18.6051652
20
1.660795
40
0.2475536
50
359.4866256
51
15.9339782
0
ARC
8
DEFAULT_255_1_234
10
18.6558637
20
1.6744286
40
0.1950618
50
16.1714718
51
43.5284424
0
ARC
8
DEFAULT_255_1_234
10
18.6635946
20
1.6821573
40
0.184134
50
43.4415429
51
83.1661404
0
ARC
8
DEFAULT_255_1_234
10
18.6501864
20
1.6084771
40
0.258926
50
82.160215
51
90.1505798
0
ARC
8
DEFAULT_255_1_234
10
18.6470291
20
1.5547865
40
0.3126255
50
89.5460705
51
102.5418777
0
ARC
8
DEFAULT_255_1_234
10
18.6227377
20
1.6578665
40
0.2067346
50
102.1739365
51
129.2061916
0
ARC
8
DEFAULT_255_1_234
10
18.6148449
20
1.6703094
40
0.1921118
50
129.7279328
51
135.7542026
0
ARC
8
DEFAULT_255_1_234
10
18.6269977
20
1.6606045
40
0.2075944
50
136.175737
51
166.3674722
0
ARC
8
DEFAULT_255_1_234
10
18.7276896
20
1.6336182
40
0.3118201
50
165.9092917
51
178.8683903
0
ARC
8
DEFAULT_255_1_234
10
18.8141757
20
1.6289179
40
0.3983935
50
178.438168
51
180.0083905
0
ARC
8
DEFAULT_255_1_234
10
18.6740359
20
1.6328231
40
0.4068601
50
163.2878735
51
180.5581814
0
ARC
8
DEFAULT_255_1_234
10
18.5938621
20
1.654884
40
0.3237344
50
133.454115
51
162.9470031
0
ARC
8
DEFAULT_255_1_234
10
18.6117162
20
1.6359
40
0.349795
50
100.7869394
51
133.4384016
0
ARC
8
DEFAULT_255_1_234
10
18.6464934
20
1.4810319
40
0.5084616
50
89.6605301
51
101.3704185
0
ARC
8
DEFAULT_255_1_234
10
18.6531273
20
1.4871496
40
0.502348
50
78.2171172
51
90.4130393
0
ARC
8
DEFAULT_255_1_234
10
18.6886351
20
1.6495637
40
0.3361092
50
55.9268222
51
78.4888551
0
ARC
8
DEFAULT_255_1_234
10
18.7082791
20
1.6834324
40
0.2970617
50
47.9292255
51
55.4054003
0
ARC
8
DEFAULT_255_1_234
10
18.7184352
20
1.6937502
40
0.2825983
50
4.3347696
51
48.0560701
0
ARC
8
DEFAULT_255_1_234
10
18.6088745
20
1.6767601
40
0.393225
50
359.925209
51
5.5967654
0
ARC
8
DEFAULT_255_1_234
10
18.6517637
20
1.6823816
40
0.3503892
50
337.8914096
51
358.9967724
0
ARC
8
DEFAULT_255_1_234
10
18.3804049
20
1.7870706
40
0.6412172
50
326.9135351
51
338.3505194
0
ARC
8
DEFAULT_255_1_234
10
17.9818353
20
2.0425284
40
1.1146189
50
319.6472867
51
327.095818
0
ARC
8
DEFAULT_255_1_234
10
17.5985356
20
2.3587
40
1.6114559
50
317.2586784
51
319.9046139
0
ENDSEC
0
EOF