0
SECTION
2
HEADER
9
$MEASUREMENT
70
1
0
ENDSEC
0
SECTION
2
TABLES
0
TABLE
2
LTYPE
0
LTYPE
72
65
70
64
2
CONTINUOUS
3
______
73
0
40
0
0
ENDTAB
0
TABLE
2
LAYER
0
LAYER
2
DEFAULT_255_2_778
70
0
62
255
6
CONTINUOUS
0
LAYER
2
DEFAULT_255_1_234
70
0
62
255
6
CONTINUOUS
0
ENDTAB
0
ENDSEC
0
SECTION
2
ENTITIES
0
LINE
8
DEFAULT_255_2_778
10
2.7780959
20
4.1672
11
7.4082959
21
4.1672
0
LINE
8
DEFAULT_255_2_778
10
18.6530959
20
4.1672
11
14.0228959
21
4.1672
0
LINE
8
DEFAULT_255_2_778
10
7.4083084
20
4.1671916
11
10.7156084
21
7.4744916
0
LINE
8
DEFAULT_255_2_778
10
10.7156084
20
7.4744916
11
14.0229084
21
4.1671916
0
LINE
8
DEFAULT_255_2_778
10
14.0229084
20
4.1671916
11
10.7156084
21
0.8598916
0
LINE
8
DEFAULT_255_2_778
10
10.7156084
20
0.8598916
11
7.4083084
21
4.1671916
0
LINE
8
DEFAULT_255_2_778
10
12.8322334
20
5.3577791
11
12.8322334
21
3.1087791
0
LINE
8
DEFAULT_255_2_778
10
12.8322334
20
3.1087791
11
8.5989334
21
3.1087791
0
LINE
8
DEFAULT_255_2_778
10
8.5989334
20
3.1087791
11
8.5989334
21
5.3577791
0
LINE
8
DEFAULT_255_2_778
10
10.7156
20
-3.7702959
11
10.7156
21
0.8599041
0
LINE
8
DEFAULT_255_2_778
10
10.7156
20
7.3421666
11
10.7156
21
3.1088666
0
LINE
8
DEFAULT_255_1_234
10
4.4811137
20
6.2784433
11
4.4811137
21
5.1034
0
LINE
8
DEFAULT_255_1_234
10
4.4811137
20
5.1034
11
4.3317234
21
5.1034
0
LINE
8
DEFAULT_255_1_234
10
4.3317234
20
5.1034
11
4.3317234
21
6.0937133
0
LINE
8
DEFAULT_255_1_234
10
4.3317234
20
6.0937133
11
4.0321396
21
5.9836785
0
LINE
8
DEFAULT_255_1_234
10
4.0321396
20
5.9836785
11
4.0321396
21
6.1186117
0
LINE
8
DEFAULT_255_1_234
10
4.0321396
20
6.1186117
11
4.4578217
21
6.2784433
0
LINE
8
DEFAULT_255_1_234
10
4.4578217
20
6.2784433
11
4.4811137
21
6.2784433
0
LINE
8
DEFAULT_255_1_234
10
16.4089119
20
5.2246792
11
16.4089119
21
5.1034
0
LINE
8
DEFAULT_255_1_234
10
16.4089119
20
5.1034
11
15.642684
21
5.1034
0
LINE
8
DEFAULT_255_1_234
10
15.642684
20
5.1034
11
15.642684
21
5.2102221
0
LINE
8
DEFAULT_255_1_234
10
15.642684
20
5.2102221
11
16.0474836
21
5.6599995
0
LINE
8
DEFAULT_255_1_234
10
15.7687823
20
5.9282595
11
15.6201952
21
5.9282595
0
LINE
8
DEFAULT_255_1_234
10
16.1350296
20
5.5644218
11
15.8217918
21
5.2246792
0
LINE
8
DEFAULT_255_1_234
10
15.8217918
20
5.2246792
11
16.4089119
21
5.2246792
0
ARC
8
DEFAULT_255_1_234
10
14.698467
20
6.8529527
40
1.8008286
50
318.5132453
51
320.7828378
0
ARC
8
DEFAULT_255_1_234
10
15.2271644
20
6.4226426
40
1.1191493
50
320.7372736
51
323.9737074
0
ARC
8
DEFAULT_255_1_234
10
15.6191501
20
6.1386361
40
0.6350923
50
323.8961724
51
328.6421089
0
ARC
8
DEFAULT_255_1_234
10
15.8238096
20
6.0124031
40
0.3946393
50
328.8299013
51
331.789948
0
ARC
8
DEFAULT_255_1_234
10
15.9235274
20
5.9609509
40
0.2824501
50
331.4255242
51
352.9364833
0
ARC
8
DEFAULT_255_1_234
10
15.9371775
20
5.9578976
40
0.2685315
50
353.2248685
51
0.0169286
0
ARC
8
DEFAULT_255_1_234
10
15.9581652
20
5.960195
40
0.2475536
50
359.4866256
51
15.9339782
0
ARC
8
DEFAULT_255_1_234
10
16.0088637
20
5.9738286
40
0.1950618
50
16.1714718
51
43.5284424
0
ARC
8
DEFAULT_255_1_234
10
16.0165946
20
5.9815573
40
0.184134
50
43.4415429
51
83.1661404
0
ARC
8
DEFAULT_255_1_234
10
16.0031864
20
5.9078771
40
0.258926
50
82.160215
51
90.1505798
0
ARC
8
DEFAULT_255_1_234
10
16.0000291
20
5.8541865
40
0.3126255
50
89.5460705
51
102.5418777
0
ARC
8
DEFAULT_255_1_234
10
15.9757377
20
5.9572665
40
0.2067346
50
102.1739365
51
129.2061916
0
ARC
8
DEFAULT_255_1_234
10
15.9678449
20
5.9697094
40
0.1921118
50
129.7279328
51
135.7542026
0
ARC
8
DEFAULT_255_1_234
10
15.9799977
20
5.9600045
40
0.2075944
50
136.175737
51
166.3674722
0
ARC
8
DEFAULT_255_1_234
10
16.0806896
20
5.9330182
40
0.3118201
50
165.9092917
51
178.8683903
0
ARC
8
DEFAULT_255_1_234
10
16.1671757
20
5.9283179
40
0.3983935
50
178.438168
51
180.0083905
0
ARC
8
DEFAULT_255_1_234
10
16.0270359
20
5.9322231
40
0.4068601
50
163.2878735
51
180.5581814
0
ARC
8
DEFAULT_255_1_234
10
15.9468621
20
5.954284
40
0.3237344
50
133.454115
51
162.9470031
0
ARC
8
DEFAULT_255_1_234
10
15.9647162
20
5.9353
40
0.349795
50
100.7869394
51
133.4384016
0
ARC
8
DEFAULT_255_1_234
10
15.9994934
20
5.7804319
40
0.5084616
50
89.6605301
51
101.3704185
0
ARC
8
DEFAULT_255_1_234
10
16.0061273
20
5.7865496
40
0.502348
50
78.2171172
51
90.4130393
0
ARC
8
DEFAULT_255_1_234
10
16.0416351
20
5.9489637
40
0.3361092
50
55.9268222
51
78.4888551
0
ARC
8
DEFAULT_255_1_234
10
16.0612791
20
5.9828324
40
0.2970617
50
47.9292255
51
55.4054003
0
ARC
8
DEFAULT_255_1_234
10
16.0714352
20
5.9931502
40
0.2825983
50
4.3347696
51
48.0560701
0
ARC
8
DEFAULT_255_1_234
10
15.9618745
20
5.9761601
40
0.393225
50
359.925209
51
5.5967654
0
ARC
8
DEFAULT_255_1_234
10
16.0047637
20
5.9817816
40
0.3503892
50
337.8914096
51
358.9967724
0
ARC
8
DEFAULT_255_1_234
10
15.7334049
20
6.0864706
40
0.6412172
50
326.9135351
51
338.3505194
0
ARC
8
DEFAULT_255_1_234
10
15.3348353
20
6.3419284
40
1.1146189
50
319.6472867
51
327.095818
0
ARC
8
DEFAULT_255_1_234
10
14.9515356
20
6.6581
40
1.6114559
50
317.2586784
51
319.9046139
0
LINE
8
DEFAULT_255_1_234
10
7.9212378
20
-2.2983831
11
7.9212378
21
-2.1771038
0
LINE
8
DEFAULT_255_1_234
10
7.9212378
20
-2.1771038
11
8.032879
21
-2.1771038
0
LINE
8
DEFAULT_255_1_234
10
7.8425268
20
-1.9714913
11
7.6939396
21
-1.9714913
0
LINE
8
DEFAULT_255_1_234
10
7.6834983
20
-2.5256813
11
7.8328887
21
-2.5256813
0
LINE
8
DEFAULT_255_1_234
10
8.032879
20
-2.2983831
11
7.9212378
21
-2.2983831
0
ARC
8
DEFAULT_255_1_234
10
8.0299656
20
-1.8378287
40
0.3392876
50
270.4919872
51
281.8951556
0
ARC
8
DEFAULT_255_1_234
10
8.0540918
20
-1.9480298
40
0.2264817
50
281.6691735
51
301.2943132
0
ARC
8
DEFAULT_255_1_234
10
8.0711128
20
-1.9791696
40
0.1910381
50
301.7833094
51
311.7545298
0
ARC
8
DEFAULT_255_1_234
10
8.0802704
20
-1.9893252
40
0.1773635
50
311.7323931
51
354.2802411
0
ARC
8
DEFAULT_255_1_234
10
8.0076329
20
-1.9768278
40
0.2509385
50
353.0937916
51
0.1181479
0
ARC
8
DEFAULT_255_1_234
10
7.9615114
20
-1.9720614
40
0.2970898
50
359.1805295
51
15.0453146
0
ARC
8
DEFAULT_255_1_234
10
8.0960951
20
-1.9328008
40
0.1569564
50
13.9577229
51
77.6713066
0
ARC
8
DEFAULT_255_1_234
10
8.057448
20
-2.0713051
40
0.3006298
50
76.1116566
51
90.7026153
0
ARC
8
DEFAULT_255_1_234
10
8.0515318
20
-2.0439455
40
0.2732568
50
89.5324876
51
103.531937
0
ARC
8
DEFAULT_255_1_234
10
8.0314762
20
-1.9640116
40
0.1908508
50
103.2931773
51
133.5619022
0
ARC
8
DEFAULT_255_1_234
10
8.0270251
20
-1.9580625
40
0.1834746
50
133.8349307
51
173.5344437
0
ARC
8
DEFAULT_255_1_234
10
8.0993294
20
-1.9708787
40
0.2568033
50
172.5096846
51
180.1366907
0
ARC
8
DEFAULT_255_1_234
10
8.0042188
20
-1.9674378
40
0.3103056
50
155.3484492
51
180.7484736
0
ARC
8
DEFAULT_255_1_234
10
7.9993277
20
-1.9703154
40
0.3070957
50
131.5744599
51
154.4798489
0
ARC
8
DEFAULT_255_1_234
10
8.0306424
20
-2.001969
40
0.3515643
50
96.9875458
51
131.9690667
0
ARC
8
DEFAULT_255_1_234
10
8.0525904
20
-2.1265364
40
0.4779224
50
89.8596053
51
97.7825159
0
ARC
8
DEFAULT_255_1_234
10
8.0573967
20
-2.1527384
40
0.5041361
50
78.3655447
51
90.4131539
0
ARC
8
DEFAULT_255_1_234
10
8.0931885
20
-1.9868113
40
0.3344039
50
56.6229102
51
78.638727
0
ARC
8
DEFAULT_255_1_234
10
8.1146829
20
-1.9492195
40
0.2912001
50
47.0253525
51
56.0854072
0
ARC
8
DEFAULT_255_1_234
10
8.1166609
20
-1.9452777
40
0.2869704
50
10.9208013
51
46.7778124
0
ARC
8
DEFAULT_255_1_234
10
7.9802675
20
-1.9768143
40
0.426899
50
359.6364486
51
11.6087304
0
ARC
8
DEFAULT_255_1_234
10
8.1637519
20
-1.9783248
40
0.243409
50
332.3549906
51
359.7179418
0
ARC
8
DEFAULT_255_1_234
10
8.0987121
20
-1.9474858
40
0.3153459
50
325.2333722
51
332.8745602
0
ARC
8
DEFAULT_255_1_234
10
8.1139744
20
-1.9581172
40
0.2967456
50
292.9802137
51
325.2392345
0
ARC
8
DEFAULT_255_1_234
10
8.0865118
20
-1.9047137
40
0.3566604
50
292.5402179
51
293.6924929
0
ARC
8
DEFAULT_255_1_234
10
8.1257714
20
-2.5501909
40
0.3307468
50
57.6435486
51
72.8625112
0
ARC
8
DEFAULT_255_1_234
10
8.1612214
20
-2.4927451
40
0.2632492
50
36.7248896
51
57.4697979
0
ARC
8
DEFAULT_255_1_234
10
8.1600847
20
-2.491478
40
0.2634081
50
8.0545065
51
36.356114
0
ARC
8
DEFAULT_255_1_234
10
8.0738032
20
-2.5069826
40
0.3510261
50
359.8320645
51
8.5869982
0
ARC
8
DEFAULT_255_1_234
10
8.0362808
20
-2.5117899
40
0.3885653
50
343.9829931
51
0.5571613
0
ARC
8
DEFAULT_255_1_234
10
8.1249005
20
-2.5360562
40
0.2966924
50
311.6359546
51
343.7651759
0
ARC
8
DEFAULT_255_1_234
10
8.0870574
20
-2.4933898
40
0.3537231
50
279.7829875
51
311.6255694
0
ARC
8
DEFAULT_255_1_234
10
8.0569351
20
-2.349672
40
0.5004971
50
269.7286406
51
280.3856417
0
ARC
8
DEFAULT_255_1_234
10
8.0507423
20
-2.3538004
40
0.4963778
50
256.6828919
51
270.4412052
0
ARC
8
DEFAULT_255_1_234
10
8.0168719
20
-2.4922606
40
0.3538406
50
229.4223008
51
256.8556159
0
ARC
8
DEFAULT_255_1_234
10
7.9754112
20
-2.5389264
40
0.2914296
50
181.818294
51
229.6455059
0
ARC
8
DEFAULT_255_1_234
10
8.0794068
20
-2.5258504
40
0.3959084
50
179.9755256
51
183.2323064
0
ARC
8
DEFAULT_255_1_234
10
8.0621814
20
-2.5278963
40
0.2293034
50
179.4465117
51
196.2869258
0
ARC
8
DEFAULT_255_1_234
10
8.0134222
20
-2.5412349
40
0.1787621
50
196.5661473
51
227.705904
0
ARC
8
DEFAULT_255_1_234
10
8.0298317
20
-2.5228845
40
0.2033784
50
227.7652068
51
257.8762805
0
ARC
8
DEFAULT_255_1_234
10
8.0523287
20
-2.4285844
40
0.3003081
50
257.4584385
51
270.426602
0
ARC
8
DEFAULT_255_1_234
10
8.0568853
20
-2.3996004
40
0.329292
50
269.5962073
51
280.8789248
0
ARC
8
DEFAULT_255_1_234
10
8.0798382
20
-2.5142315
40
0.2123908
50
280.6346389
51
299.8595945
0
ARC
8
DEFAULT_255_1_234
10
8.0989289
20
-2.5504788
40
0.171457
50
300.3576302
51
314.5517981
0
ARC
8
DEFAULT_255_1_234
10
8.0906349
20
-2.5444081
40
0.1816095
50
315.0728369
51
345.0431014
0
ARC
8
DEFAULT_255_1_234
10
7.9983163
20
-2.5175159
40
0.2777492
50
344.5986631
51
357.9269593
0
ARC
8
DEFAULT_255_1_234
10
7.9087489
20
-2.5113724
40
0.3674917
50
357.4748886
51
0.0231117
0
ARC
8
DEFAULT_255_1_234
10
8.0110599
20
-2.5089321
40
0.2651907
50
359.5047933
51
13.4239635
0
ARC
8
DEFAULT_255_1_234
10
8.0977242
20
-2.4867522
40
0.1757509
50
12.9498199
51
48.7551375
0
ARC
8
DEFAULT_255_1_234
10
8.0794976
20
-2.51166
40
0.2065134
50
49.5088623
51
72.1836453
0
ARC
8
DEFAULT_255_1_234
10
8.0437129
20
-2.6178709
40
0.3185836
50
71.9010081
51
84.3554254
0
ARC
8
DEFAULT_255_1_234
10
8.0275761
20
-2.7539674
40
0.4556151
50
84.0193428
51
89.333121
0
ENDSEC
0
EOF