0
SECTION
2
HEADER
9
$MEASUREMENT
70
1
0
ENDSEC
0
SECTION
2
TABLES
0
TABLE
2
LTYPE
0
LTYPE
72
65
70
64
2
CONTINUOUS
3
______
73
0
40
0
0
ENDTAB
0
TABLE
2
LAYER
0
LAYER
2
DEFAULT_255_2_778
70
0
62
255
6
CONTINUOUS
0
LAYER
2
DEFAULT_255_1_234
70
0
62
255
6
CONTINUOUS
0
ENDTAB
0
ENDSEC
0
SECTION
2
ENTITIES
0
LINE
8
DEFAULT_255_2_778
10
8.0697667
20
6.4822333
11
13.3614667
21
6.4822333
0
LINE
8
DEFAULT_255_2_778
10
13.3614667
20
6.4822333
11
13.3614667
21
1.1905333
0
LINE
8
DEFAULT_255_2_778
10
13.3614667
20
1.1905333
11
8.0697667
21
1.1905333
0
LINE
8
DEFAULT_255_2_778
10
8.0697667
20
1.1905333
11
8.0697667
21
6.4822333
0
LINE
8
DEFAULT_255_2_778
10
13.3614417
20
3.7040749
11
12.0385417
21
5.8207749
0
LINE
8
DEFAULT_255_2_778
10
12.0385417
20
5.8207749
11
12.0385417
21
1.8520749
0
LINE
8
DEFAULT_255_2_778
10
12.0385417
20
1.8520749
11
13.3614417
21
3.7040749
0
LINE
8
DEFAULT_255_2_778
10
13.3614417
20
3.7040749
11
13.3614417
21
3.7040749
0
LINE
8
DEFAULT_255_2_778
10
2.7780918
20
3.8364
11
12.0384918
21
3.8364
0
LINE
8
DEFAULT_255_2_778
10
10.7156
20
3.8364499
11
10.7156
21
-4.1010501
0
LINE
8
DEFAULT_255_2_778
10
13.3614667
20
3.8364
11
18.6531667
21
3.8364
0
LINE
8
DEFAULT_255_1_234
10
4.4811137
20
5.9476433
11
4.4811137
21
4.7726
0
LINE
8
DEFAULT_255_1_234
10
4.4811137
20
4.7726
11
4.3317234
21
4.7726
0
LINE
8
DEFAULT_255_1_234
10
4.3317234
20
4.7726
11
4.3317234
21
5.7629133
0
LINE
8
DEFAULT_255_1_234
10
4.3317234
20
5.7629133
11
4.0321396
21
5.6528785
0
LINE
8
DEFAULT_255_1_234
10
4.0321396
20
5.6528785
11
4.0321396
21
5.7878117
0
LINE
8
DEFAULT_255_1_234
10
4.0321396
20
5.7878117
11
4.4578217
21
5.9476433
0
LINE
8
DEFAULT_255_1_234
10
4.4578217
20
5.9476433
11
4.4811137
21
5.9476433
0
LINE
8
DEFAULT_255_1_234
10
8.4714119
20
-3.0436208
11
8.4714119
21
-3.1649
0
LINE
8
DEFAULT_255_1_234
10
8.4714119
20
-3.1649
11
7.705184
21
-3.1649
0
LINE
8
DEFAULT_255_1_234
10
7.705184
20
-3.1649
11
7.705184
21
-3.0580779
0
LINE
8
DEFAULT_255_1_234
10
7.705184
20
-3.0580779
11
8.1099836
21
-2.6083005
0
LINE
8
DEFAULT_255_1_234
10
7.8312823
20
-2.3400405
11
7.6826952
21
-2.3400405
0
LINE
8
DEFAULT_255_1_234
10
8.1975296
20
-2.7038782
11
7.8842918
21
-3.0436208
0
LINE
8
DEFAULT_255_1_234
10
7.8842918
20
-3.0436208
11
8.4714119
21
-3.0436208
0
ARC
8
DEFAULT_255_1_234
10
6.760967
20
-1.4153473
40
1.8008286
50
318.5132453
51
320.7828378
0
ARC
8
DEFAULT_255_1_234
10
7.2896644
20
-1.8456574
40
1.1191493
50
320.7372736
51
323.9737074
0
ARC
8
DEFAULT_255_1_234
10
7.6816501
20
-2.1296639
40
0.6350923
50
323.8961724
51
328.6421089
0
ARC
8
DEFAULT_255_1_234
10
7.8863096
20
-2.2558969
40
0.3946393
50
328.8299013
51
331.789948
0
ARC
8
DEFAULT_255_1_234
10
7.9860274
20
-2.3073491
40
0.2824501
50
331.4255242
51
352.9364833
0
ARC
8
DEFAULT_255_1_234
10
7.9996775
20
-2.3104024
40
0.2685315
50
353.2248685
51
0.0169286
0
ARC
8
DEFAULT_255_1_234
10
8.0206652
20
-2.308105
40
0.2475536
50
359.4866256
51
15.9339782
0
ARC
8
DEFAULT_255_1_234
10
8.0713637
20
-2.2944714
40
0.1950618
50
16.1714718
51
43.5284424
0
ARC
8
DEFAULT_255_1_234
10
8.0790946
20
-2.2867427
40
0.184134
50
43.4415429
51
83.1661404
0
ARC
8
DEFAULT_255_1_234
10
8.0656864
20
-2.3604229
40
0.258926
50
82.160215
51
90.1505798
0
ARC
8
DEFAULT_255_1_234
10
8.0625291
20
-2.4141135
40
0.3126255
50
89.5460705
51
102.5418777
0
ARC
8
DEFAULT_255_1_234
10
8.0382377
20
-2.3110335
40
0.2067346
50
102.1739365
51
129.2061916
0
ARC
8
DEFAULT_255_1_234
10
8.0303449
20
-2.2985906
40
0.1921118
50
129.7279328
51
135.7542026
0
ARC
8
DEFAULT_255_1_234
10
8.0424977
20
-2.3082955
40
0.2075944
50
136.175737
51
166.3674722
0
ARC
8
DEFAULT_255_1_234
10
8.1431896
20
-2.3352818
40
0.3118201
50
165.9092917
51
178.8683903
0
ARC
8
DEFAULT_255_1_234
10
8.2296757
20
-2.3399821
40
0.3983935
50
178.438168
51
180.0083905
0
ARC
8
DEFAULT_255_1_234
10
8.0895359
20
-2.3360769
40
0.4068601
50
163.2878735
51
180.5581814
0
ARC
8
DEFAULT_255_1_234
10
8.0093621
20
-2.314016
40
0.3237344
50
133.454115
51
162.9470031
0
ARC
8
DEFAULT_255_1_234
10
8.0272162
20
-2.333
40
0.349795
50
100.7869394
51
133.4384016
0
ARC
8
DEFAULT_255_1_234
10
8.0619934
20
-2.4878681
40
0.5084616
50
89.6605301
51
101.3704185
0
ARC
8
DEFAULT_255_1_234
10
8.0686273
20
-2.4817504
40
0.502348
50
78.2171172
51
90.4130393
0
ARC
8
DEFAULT_255_1_234
10
8.1041351
20
-2.3193363
40
0.3361092
50
55.9268222
51
78.4888551
0
ARC
8
DEFAULT_255_1_234
10
8.1237791
20
-2.2854676
40
0.2970617
50
47.9292255
51
55.4054003
0
ARC
8
DEFAULT_255_1_234
10
8.1339352
20
-2.2751498
40
0.2825983
50
4.3347696
51
48.0560701
0
ARC
8
DEFAULT_255_1_234
10
8.0243745
20
-2.2921399
40
0.393225
50
359.925209
51
5.5967654
0
ARC
8
DEFAULT_255_1_234
10
8.0672637
20
-2.2865184
40
0.3503892
50
337.8914096
51
358.9967724
0
ARC
8
DEFAULT_255_1_234
10
7.7959049
20
-2.1818294
40
0.6412172
50
326.9135351
51
338.3505194
0
ARC
8
DEFAULT_255_1_234
10
7.3973353
20
-1.9263716
40
1.1146189
50
319.6472867
51
327.095818
0
ARC
8
DEFAULT_255_1_234
10
7.0140356
20
-1.6102
40
1.6114559
50
317.2586784
51
319.9046139
0
LINE
8
DEFAULT_255_1_234
10
15.8587378
20
5.3083169
11
15.8587378
21
5.4295962
0
LINE
8
DEFAULT_255_1_234
10
15.8587378
20
5.4295962
11
15.970379
21
5.4295962
0
LINE
8
DEFAULT_255_1_234
10
15.7800268
20
5.6352087
11
15.6314396
21
5.6352087
0
LINE
8
DEFAULT_255_1_234
10
15.6209983
20
5.0810188
11
15.7703887
21
5.0810188
0
LINE
8
DEFAULT_255_1_234
10
15.970379
20
5.3083169
11
15.8587378
21
5.3083169
0
ARC
8
DEFAULT_255_1_234
10
15.9674656
20
5.7688713
40
0.3392876
50
270.4919872
51
281.8951556
0
ARC
8
DEFAULT_255_1_234
10
15.9915918
20
5.6586702
40
0.2264817
50
281.6691735
51
301.2943132
0
ARC
8
DEFAULT_255_1_234
10
16.0086128
20
5.6275304
40
0.1910381
50
301.7833094
51
311.7545298
0
ARC
8
DEFAULT_255_1_234
10
16.0177704
20
5.6173748
40
0.1773635
50
311.7323931
51
354.2802411
0
ARC
8
DEFAULT_255_1_234
10
15.9451329
20
5.6298722
40
0.2509385
50
353.0937916
51
0.1181479
0
ARC
8
DEFAULT_255_1_234
10
15.8990114
20
5.6346386
40
0.2970898
50
359.1805295
51
15.0453146
0
ARC
8
DEFAULT_255_1_234
10
16.0335951
20
5.6738992
40
0.1569564
50
13.9577229
51
77.6713066
0
ARC
8
DEFAULT_255_1_234
10
15.994948
20
5.5353949
40
0.3006298
50
76.1116566
51
90.7026153
0
ARC
8
DEFAULT_255_1_234
10
15.9890318
20
5.5627545
40
0.2732568
50
89.5324876
51
103.531937
0
ARC
8
DEFAULT_255_1_234
10
15.9689762
20
5.6426884
40
0.1908508
50
103.2931773
51
133.5619022
0
ARC
8
DEFAULT_255_1_234
10
15.9645251
20
5.6486375
40
0.1834746
50
133.8349307
51
173.5344437
0
ARC
8
DEFAULT_255_1_234
10
16.0368294
20
5.6358213
40
0.2568033
50
172.5096846
51
180.1366907
0
ARC
8
DEFAULT_255_1_234
10
15.9417188
20
5.6392622
40
0.3103056
50
155.3484492
51
180.7484736
0
ARC
8
DEFAULT_255_1_234
10
15.9368277
20
5.6363846
40
0.3070957
50
131.5744599
51
154.4798489
0
ARC
8
DEFAULT_255_1_234
10
15.9681424
20
5.604731
40
0.3515643
50
96.9875458
51
131.9690667
0
ARC
8
DEFAULT_255_1_234
10
15.9900904
20
5.4801636
40
0.4779224
50
89.8596053
51
97.7825159
0
ARC
8
DEFAULT_255_1_234
10
15.9948967
20
5.4539616
40
0.5041361
50
78.3655447
51
90.4131539
0
ARC
8
DEFAULT_255_1_234
10
16.0306885
20
5.6198887
40
0.3344039
50
56.6229102
51
78.638727
0
ARC
8
DEFAULT_255_1_234
10
16.0521829
20
5.6574805
40
0.2912001
50
47.0253525
51
56.0854072
0
ARC
8
DEFAULT_255_1_234
10
16.0541609
20
5.6614223
40
0.2869704
50
10.9208013
51
46.7778124
0
ARC
8
DEFAULT_255_1_234
10
15.9177675
20
5.6298857
40
0.426899
50
359.6364486
51
11.6087304
0
ARC
8
DEFAULT_255_1_234
10
16.1012519
20
5.6283752
40
0.243409
50
332.3549906
51
359.7179418
0
ARC
8
DEFAULT_255_1_234
10
16.0362121
20
5.6592142
40
0.3153459
50
325.2333722
51
332.8745602
0
ARC
8
DEFAULT_255_1_234
10
16.0514744
20
5.6485828
40
0.2967456
50
292.9802137
51
325.2392345
0
ARC
8
DEFAULT_255_1_234
10
16.0240118
20
5.7019863
40
0.3566604
50
292.5402179
51
293.6924929
0
ARC
8
DEFAULT_255_1_234
10
16.0632714
20
5.0565091
40
0.3307468
50
57.6435486
51
72.8625112
0
ARC
8
DEFAULT_255_1_234
10
16.0987214
20
5.1139549
40
0.2632492
50
36.7248896
51
57.4697979
0
ARC
8
DEFAULT_255_1_234
10
16.0975847
20
5.115222
40
0.2634081
50
8.0545065
51
36.356114
0
ARC
8
DEFAULT_255_1_234
10
16.0113032
20
5.0997174
40
0.3510261
50
359.8320645
51
8.5869982
0
ARC
8
DEFAULT_255_1_234
10
15.9737808
20
5.0949101
40
0.3885653
50
343.9829931
51
0.5571613
0
ARC
8
DEFAULT_255_1_234
10
16.0624005
20
5.0706438
40
0.2966924
50
311.6359546
51
343.7651759
0
ARC
8
DEFAULT_255_1_234
10
16.0245574
20
5.1133102
40
0.3537231
50
279.7829875
51
311.6255694
0
ARC
8
DEFAULT_255_1_234
10
15.9944351
20
5.257028
40
0.5004971
50
269.7286406
51
280.3856417
0
ARC
8
DEFAULT_255_1_234
10
15.9882423
20
5.2528996
40
0.4963778
50
256.6828919
51
270.4412052
0
ARC
8
DEFAULT_255_1_234
10
15.9543719
20
5.1144394
40
0.3538406
50
229.4223008
51
256.8556159
0
ARC
8
DEFAULT_255_1_234
10
15.9129112
20
5.0677736
40
0.2914296
50
181.818294
51
229.6455059
0
ARC
8
DEFAULT_255_1_234
10
16.0169068
20
5.0808496
40
0.3959084
50
179.9755256
51
183.2323064
0
ARC
8
DEFAULT_255_1_234
10
15.9996814
20
5.0788037
40
0.2293034
50
179.4465117
51
196.2869258
0
ARC
8
DEFAULT_255_1_234
10
15.9509222
20
5.0654651
40
0.1787621
50
196.5661473
51
227.705904
0
ARC
8
DEFAULT_255_1_234
10
15.9673317
20
5.0838155
40
0.2033784
50
227.7652068
51
257.8762805
0
ARC
8
DEFAULT_255_1_234
10
15.9898287
20
5.1781156
40
0.3003081
50
257.4584385
51
270.426602
0
ARC
8
DEFAULT_255_1_234
10
15.9943853
20
5.2070996
40
0.329292
50
269.5962073
51
280.8789248
0
ARC
8
DEFAULT_255_1_234
10
16.0173382
20
5.0924685
40
0.2123908
50
280.6346389
51
299.8595945
0
ARC
8
DEFAULT_255_1_234
10
16.0364289
20
5.0562212
40
0.171457
50
300.3576302
51
314.5517981
0
ARC
8
DEFAULT_255_1_234
10
16.0281349
20
5.0622919
40
0.1816095
50
315.0728369
51
345.0431014
0
ARC
8
DEFAULT_255_1_234
10
15.9358163
20
5.0891841
40
0.2777492
50
344.5986631
51
357.9269593
0
ARC
8
DEFAULT_255_1_234
10
15.8462489
20
5.0953276
40
0.3674917
50
357.4748886
51
0.0231117
0
ARC
8
DEFAULT_255_1_234
10
15.9485599
20
5.0977679
40
0.2651907
50
359.5047933
51
13.4239635
0
ARC
8
DEFAULT_255_1_234
10
16.0352242
20
5.1199478
40
0.1757509
50
12.9498199
51
48.7551375
0
ARC
8
DEFAULT_255_1_234
10
16.0169976
20
5.09504
40
0.2065134
50
49.5088623
51
72.1836453
0
ARC
8
DEFAULT_255_1_234
10
15.9812129
20
4.9888291
40
0.3185836
50
71.9010081
51
84.3554254
0
ARC
8
DEFAULT_255_1_234
10
15.9650761
20
4.8527326
40
0.4556151
50
84.0193428
51
89.333121
0
ENDSEC
0
EOF