0
SECTION
2
HEADER
9
$MEASUREMENT
70
1
0
ENDSEC
0
SECTION
2
TABLES
0
TABLE
2
LTYPE
0
LTYPE
72
65
70
64
2
CONTINUOUS
3
______
73
0
40
0
0
ENDTAB
0
TABLE
2
LAYER
0
LAYER
2
DEFAULT_255_2_778
70
0
62
255
6
CONTINUOUS
0
LAYER
2
DEFAULT_255_1_388
70
0
62
255
6
CONTINUOUS
0
ENDTAB
0
ENDSEC
0
SECTION
2
ENTITIES
0
LINE
8
DEFAULT_255_2_778
10
8.0697667
20
6.4822333
11
13.3614667
21
6.4822333
0
LINE
8
DEFAULT_255_2_778
10
13.3614667
20
6.4822333
11
13.3614667
21
1.1905333
0
LINE
8
DEFAULT_255_2_778
10
13.3614667
20
1.1905333
11
8.0697667
21
1.1905333
0
LINE
8
DEFAULT_255_2_778
10
8.0697667
20
1.1905333
11
8.0697667
21
6.4822333
0
LINE
8
DEFAULT_255_2_778
10
13.3614417
20
3.7040749
11
12.0385417
21
5.8207749
0
LINE
8
DEFAULT_255_2_778
10
12.0385417
20
5.8207749
11
12.0385417
21
1.8520749
0
LINE
8
DEFAULT_255_2_778
10
12.0385417
20
1.8520749
11
13.3614417
21
3.7040749
0
LINE
8
DEFAULT_255_2_778
10
13.3614417
20
3.7040749
11
13.3614417
21
3.7040749
0
LINE
8
DEFAULT_255_2_778
10
2.7780918
20
3.8364
11
12.0384918
21
3.8364
0
LINE
8
DEFAULT_255_2_778
10
10.7156
20
3.8364499
11
10.7156
21
-4.1010501
0
LINE
8
DEFAULT_255_2_778
10
13.3614667
20
3.8364
11
18.6531667
21
3.8364
0
LINE
8
DEFAULT_255_1_388
10
4.4961985
20
6.1061148
11
4.4961985
21
4.7842
0
LINE
8
DEFAULT_255_1_388
10
4.4961985
20
4.7842
11
4.3281355
21
4.7842
0
LINE
8
DEFAULT_255_1_388
10
4.3281355
20
4.7842
11
4.3281355
21
5.898295
0
LINE
8
DEFAULT_255_1_388
10
4.3281355
20
5.898295
11
3.991106
21
5.7745066
0
LINE
8
DEFAULT_255_1_388
10
3.991106
20
5.7745066
11
3.991106
21
5.9263055
0
LINE
8
DEFAULT_255_1_388
10
3.991106
20
5.9263055
11
4.4699951
21
6.1061148
0
LINE
8
DEFAULT_255_1_388
10
4.4699951
20
6.1061148
11
4.4961985
21
6.1061148
0
LINE
8
DEFAULT_255_1_388
10
8.5212318
20
-3.0168618
11
8.5212318
21
-3.1533
0
LINE
8
DEFAULT_255_1_388
10
8.5212318
20
-3.1533
11
7.6592313
21
-3.1533
0
LINE
8
DEFAULT_255_1_388
10
7.6592313
20
-3.1533
11
7.6592313
21
-3.0331259
0
LINE
8
DEFAULT_255_1_388
10
7.6592313
20
-3.0331259
11
8.1146278
21
-2.5271298
0
LINE
8
DEFAULT_255_1_388
10
7.8010909
20
-2.2253393
11
7.6339315
21
-2.2253393
0
LINE
8
DEFAULT_255_1_388
10
8.2131163
20
-2.634654
11
7.8607262
21
-3.0168618
0
LINE
8
DEFAULT_255_1_388
10
7.8607262
20
-3.0168618
11
8.5212318
21
-3.0168618
0
ARC
8
DEFAULT_255_1_388
10
6.5970337
20
-1.1851017
40
2.0258655
50
318.5132526
51
320.7829045
0
ARC
8
DEFAULT_255_1_388
10
7.1918294
20
-1.6692071
40
1.2589638
50
320.7372878
51
323.9739031
0
ARC
8
DEFAULT_255_1_388
10
7.6327226
20
-1.9886446
40
0.7145141
50
323.8962701
51
328.64194
0
ARC
8
DEFAULT_255_1_388
10
7.8629484
20
-2.1306455
40
0.4440242
50
328.8294576
51
331.7891185
0
ARC
8
DEFAULT_255_1_388
10
7.9751804
20
-2.1885626
40
0.3177517
50
331.4254512
51
352.9365785
0
ARC
8
DEFAULT_255_1_388
10
7.9904804
20
-2.191995
40
0.3021496
50
353.2257659
51
0.0166158
0
ARC
8
DEFAULT_255_1_388
10
8.0141564
20
-2.1894106
40
0.2784847
50
359.486299
51
15.9343185
0
ARC
8
DEFAULT_255_1_388
10
8.0711831
20
-2.1740731
40
0.2194403
50
16.1712913
51
43.5286088
0
ARC
8
DEFAULT_255_1_388
10
8.0798776
20
-2.1653809
40
0.2071504
50
43.4417391
51
83.1661095
0
ARC
8
DEFAULT_255_1_388
10
8.0647937
20
-2.2482684
40
0.2912888
50
82.160179
51
90.1505708
0
ARC
8
DEFAULT_255_1_388
10
8.0612418
20
-2.3086721
40
0.3517025
50
89.5460741
51
102.5418361
0
ARC
8
DEFAULT_255_1_388
10
8.0339138
20
-2.1927067
40
0.2325748
50
102.1738499
51
129.206123
0
ARC
8
DEFAULT_255_1_388
10
8.0250592
20
-2.1787336
40
0.2161591
50
129.72865
51
135.753947
0
ARC
8
DEFAULT_255_1_388
10
8.0387074
20
-2.1896272
40
0.2335433
50
136.1757367
51
166.3673339
0
ARC
8
DEFAULT_255_1_388
10
8.1519762
20
-2.2199852
40
0.3507873
50
165.9090694
51
178.8684636
0
ARC
8
DEFAULT_255_1_388
10
8.2495534
20
-2.2252737
40
0.4484624
50
178.4391136
51
180.0083808
0
ARC
8
DEFAULT_255_1_388
10
8.0916235
20
-2.2208803
40
0.4577138
50
163.2878482
51
180.5581842
0
ARC
8
DEFAULT_255_1_388
10
8.0014276
20
-2.1960607
40
0.3641968
50
133.4540601
51
162.947111
0
ARC
8
DEFAULT_255_1_388
10
8.0215158
20
-2.2174211
40
0.3935189
50
100.7869829
51
133.4382499
0
ARC
8
DEFAULT_255_1_388
10
8.0606403
20
-2.3916601
40
0.5720313
50
89.660664
51
101.3702276
0
ARC
8
DEFAULT_255_1_388
10
8.0681012
20
-2.3847737
40
0.5651495
50
78.2172678
51
90.412935
0
ARC
8
DEFAULT_255_1_388
10
8.1080478
20
-2.2020489
40
0.378122
50
55.9269121
51
78.4888449
0
ARC
8
DEFAULT_255_1_388
10
8.1301193
20
-2.1639813
40
0.3342379
50
47.929771
51
55.4049217
0
ARC
8
DEFAULT_255_1_388
10
8.1415723
20
-2.1523382
40
0.3179217
50
4.334829
51
48.0560205
0
ARC
8
DEFAULT_255_1_388
10
8.0183525
20
-2.1714513
40
0.442341
50
359.9251713
51
5.5971671
0
ARC
8
DEFAULT_255_1_388
10
8.066568
20
-2.1651272
40
0.3941854
50
337.8914027
51
358.9967534
0
ARC
8
DEFAULT_255_1_388
10
7.761325
20
-2.0473705
40
0.7213271
50
326.9132501
51
338.3508308
0
ARC
8
DEFAULT_255_1_388
10
7.3129362
20
-1.7599895
40
1.2538973
50
319.6471833
51
327.0959558
0
ARC
8
DEFAULT_255_1_388
10
6.881602
20
-1.404195
40
1.8129975
50
317.2588228
51
319.9045804
0
LINE
8
DEFAULT_255_1_388
10
15.8397901
20
5.3868775
11
15.8397901
21
5.5233157
0
LINE
8
DEFAULT_255_1_388
10
15.8397901
20
5.5233157
11
15.9653856
21
5.5233157
0
LINE
8
DEFAULT_255_1_388
10
15.7512408
20
5.7546282
11
15.5840814
21
5.7546282
0
LINE
8
DEFAULT_255_1_388
10
15.5723351
20
5.1311688
11
15.740398
21
5.1311688
0
LINE
8
DEFAULT_255_1_388
10
15.9653856
20
5.3868775
11
15.8397901
21
5.3868775
0
ARC
8
DEFAULT_255_1_388
10
15.9621082
20
5.9049922
40
0.3816905
50
270.491971
51
281.8953028
0
ARC
8
DEFAULT_255_1_388
10
15.9892509
20
5.7810199
40
0.2547877
50
281.6690378
51
301.2943765
0
ARC
8
DEFAULT_255_1_388
10
16.0083961
20
5.7459926
40
0.2149197
50
301.7834992
51
311.754567
0
ARC
8
DEFAULT_255_1_388
10
16.0187002
20
5.734565
40
0.1995326
50
311.7325027
51
354.2803031
0
ARC
8
DEFAULT_255_1_388
10
15.9369418
20
5.748628
40
0.2823461
50
353.0941646
51
0.1174696
0
ARC
8
DEFAULT_255_1_388
10
15.8850976
20
5.7539874
40
0.3342238
50
359.1804452
51
15.0452323
0
ARC
8
DEFAULT_255_1_388
10
16.0365034
20
5.7981546
40
0.1765747
50
13.957816
51
77.6713812
0
ARC
8
DEFAULT_255_1_388
10
15.993027
20
5.6423464
40
0.3381982
50
76.111571
51
90.7028736
0
ARC
8
DEFAULT_255_1_388
10
15.9863682
20
5.673125
40
0.3074046
50
89.5321574
51
103.5319393
0
ARC
8
DEFAULT_255_1_388
10
15.9638066
20
5.7630443
40
0.2147041
50
103.2930114
51
133.5619756
0
ARC
8
DEFAULT_255_1_388
10
15.9588007
20
5.7697351
40
0.2064084
50
133.8349761
51
173.5343225
0
ARC
8
DEFAULT_255_1_388
10
16.0401665
20
5.7553144
40
0.2889266
50
172.5097183
51
180.1360699
0
ARC
8
DEFAULT_255_1_388
10
15.9331429
20
5.759188
40
0.3490913
50
155.3483706
51
180.7484035
0
ARC
8
DEFAULT_255_1_388
10
15.9276404
20
5.7559519
40
0.3454798
50
131.5745177
51
154.4799474
0
ARC
8
DEFAULT_255_1_388
10
15.9628687
20
5.7203422
40
0.3955058
50
96.9874487
51
131.9690874
0
ARC
8
DEFAULT_255_1_388
10
15.987558
20
5.5802407
40
0.537622
50
89.8592909
51
97.7827481
0
ARC
8
DEFAULT_255_1_388
10
15.9929689
20
5.550736
40
0.5671399
50
78.3654493
51
90.4132586
0
ARC
8
DEFAULT_255_1_388
10
16.033233
20
5.7373918
40
0.3762034
50
56.6229818
51
78.6387103
0
ARC
8
DEFAULT_255_1_388
10
16.0574159
20
5.7796846
40
0.3275964
50
47.0254604
51
56.085558
0
ARC
8
DEFAULT_255_1_388
10
16.059641
20
5.7841189
40
0.3228382
50
10.9207523
51
46.777927
0
ARC
8
DEFAULT_255_1_388
10
15.9062004
20
5.7486401
40
0.4802559
50
359.6364235
51
11.6087615
0
ARC
8
DEFAULT_255_1_388
10
16.112617
20
5.7469404
40
0.273833
50
332.3549969
51
359.7179765
0
ARC
8
DEFAULT_255_1_388
10
16.039457
20
5.7816285
40
0.3547505
50
325.2332381
51
332.8746682
0
ARC
8
DEFAULT_255_1_388
10
16.0566153
20
5.7696763
40
0.3338396
50
292.9803892
51
325.2391113
0
ARC
8
DEFAULT_255_1_388
10
16.0255349
20
5.8301679
40
0.4016959
50
292.542178
51
293.6931461
0
ARC
8
DEFAULT_255_1_388
10
16.0698921
20
5.1036036
40
0.372079
50
57.643292
51
72.8626085
0
ARC
8
DEFAULT_255_1_388
10
16.1097755
20
5.1682273
40
0.2961455
50
36.7246661
51
57.4701329
0
ARC
8
DEFAULT_255_1_388
10
16.1084912
20
5.169647
40
0.2963321
50
8.054535
51
36.3561529
0
ARC
8
DEFAULT_255_1_388
10
16.0114585
20
5.1522073
40
0.3948682
50
359.8316595
51
8.5873361
0
ARC
8
DEFAULT_255_1_388
10
15.9692059
20
5.146797
40
0.4371398
50
343.9831631
51
0.557075
0
ARC
8
DEFAULT_255_1_388
10
16.0689108
20
5.1194963
40
0.3337749
50
311.6358204
51
343.7652116
0
ARC
8
DEFAULT_255_1_388
10
16.0263362
20
5.1674955
40
0.3979351
50
279.7829743
51
311.625622
0
ARC
8
DEFAULT_255_1_388
10
15.9924497
20
5.3291642
40
0.5630417
50
269.7285092
51
280.3857694
0
ARC
8
DEFAULT_255_1_388
10
15.985481
20
5.3245241
40
0.5584119
50
256.6827433
51
270.4412869
0
ARC
8
DEFAULT_255_1_388
10
15.9473797
20
5.1687698
40
0.3980715
50
229.4223821
51
256.8554507
0
ARC
8
DEFAULT_255_1_388
10
15.900735
20
5.1162683
40
0.3278564
50
181.8183354
51
229.6455015
0
ARC
8
DEFAULT_255_1_388
10
16.017696
20
5.1309825
40
0.4453611
50
179.9760419
51
183.2330638
0
ARC
8
DEFAULT_255_1_388
10
15.9983512
20
5.1286781
40
0.2579652
50
179.4467996
51
196.2871626
0
ARC
8
DEFAULT_255_1_388
10
15.9434966
20
5.1136709
40
0.2011057
50
196.5661293
51
227.7059371
0
ARC
8
DEFAULT_255_1_388
10
15.9619573
20
5.1343155
40
0.2287994
50
227.7653015
51
257.8763321
0
ARC
8
DEFAULT_255_1_388
10
15.9872656
20
5.2403961
40
0.3378385
50
257.4583525
51
270.4267406
0
ARC
8
DEFAULT_255_1_388
10
15.9923906
20
5.273023
40
0.3704652
50
269.5965319
51
280.8788143
0
ARC
8
DEFAULT_255_1_388
10
16.0182134
20
5.1440529
40
0.2389415
50
280.6347277
51
299.8594068
0
ARC
8
DEFAULT_255_1_388
10
16.0396903
20
5.1032736
40
0.19289
50
300.3575552
51
314.5515667
0
ARC
8
DEFAULT_255_1_388
10
16.0303579
20
5.1101025
40
0.204312
50
315.0730962
51
345.0429362
0
ARC
8
DEFAULT_255_1_388
10
15.9265087
20
5.1403539
40
0.31246
50
344.598526
51
357.9270698
0
ARC
8
DEFAULT_255_1_388
10
15.8255391
20
5.1472705
40
0.4136265
50
357.4755098
51
0.0224936
0
ARC
8
DEFAULT_255_1_388
10
15.9408269
20
5.1500099
40
0.2983498
50
359.5051035
51
13.4236939
0
ARC
8
DEFAULT_255_1_388
10
16.0383359
20
5.1749637
40
0.1977186
50
12.9497905
51
48.7550905
0
ARC
8
DEFAULT_255_1_388
10
16.0178281
20
5.1469373
40
0.2323321
50
49.509109
51
72.1832965
0
ARC
8
DEFAULT_255_1_388
10
15.9775749
20
5.0274632
40
0.358397
50
71.9008458
51
84.3555134
0
ARC
8
DEFAULT_255_1_388
10
15.9594144
20
4.8742712
40
0.512641
50
84.019632
51
89.3326067
0
ENDSEC
0
EOF