0
SECTION
2
HEADER
9
$MEASUREMENT
70
1
0
ENDSEC
0
SECTION
2
TABLES
0
TABLE
2
LTYPE
0
LTYPE
72
65
70
64
2
CONTINUOUS
3
______
73
0
40
0
0
ENDTAB
0
TABLE
2
LAYER
0
LAYER
2
DEFAULT_255_1_234
70
0
62
255
6
CONTINUOUS
0
LAYER
2
DEFAULT_255_2_778
70
0
62
255
6
CONTINUOUS
0
ENDTAB
0
ENDSEC
0
SECTION
2
ENTITIES
0
LINE
8
DEFAULT_255_1_234
10
4.4807137
20
0.6560433
11
4.4807137
21
-0.519
0
LINE
8
DEFAULT_255_1_234
10
4.4807137
20
-0.519
11
4.3313234
21
-0.519
0
LINE
8
DEFAULT_255_1_234
10
4.3313234
20
-0.519
11
4.3313234
21
0.4713133
0
LINE
8
DEFAULT_255_1_234
10
4.3313234
20
0.4713133
11
4.0317396
21
0.3612785
0
LINE
8
DEFAULT_255_1_234
10
4.0317396
20
0.3612785
11
4.0317396
21
0.4962117
0
LINE
8
DEFAULT_255_1_234
10
4.0317396
20
0.4962117
11
4.4574217
21
0.6560433
0
LINE
8
DEFAULT_255_1_234
10
4.4574217
20
0.6560433
11
4.4807137
21
0.6560433
0
LINE
8
DEFAULT_255_1_234
10
24.3476119
20
-0.3977208
11
24.3476119
21
-0.519
0
LINE
8
DEFAULT_255_1_234
10
24.3476119
20
-0.519
11
23.581384
21
-0.519
0
LINE
8
DEFAULT_255_1_234
10
23.581384
20
-0.519
11
23.581384
21
-0.4121779
0
LINE
8
DEFAULT_255_1_234
10
23.581384
20
-0.4121779
11
23.9861836
21
0.0375995
0
LINE
8
DEFAULT_255_1_234
10
23.7074823
20
0.3058595
11
23.5588952
21
0.3058595
0
LINE
8
DEFAULT_255_1_234
10
24.0737296
20
-0.0579782
11
23.7604918
21
-0.3977208
0
LINE
8
DEFAULT_255_1_234
10
23.7604918
20
-0.3977208
11
24.3476119
21
-0.3977208
0
ARC
8
DEFAULT_255_1_234
10
22.637167
20
1.2305527
40
1.8008286
50
318.5132453
51
320.7828378
0
ARC
8
DEFAULT_255_1_234
10
23.1658644
20
0.8002426
40
1.1191493
50
320.7372736
51
323.9737074
0
ARC
8
DEFAULT_255_1_234
10
23.5578501
20
0.5162361
40
0.6350923
50
323.8961724
51
328.6421089
0
ARC
8
DEFAULT_255_1_234
10
23.7625096
20
0.3900031
40
0.3946393
50
328.8299013
51
331.789948
0
ARC
8
DEFAULT_255_1_234
10
23.8622274
20
0.3385509
40
0.2824501
50
331.4255242
51
352.9364833
0
ARC
8
DEFAULT_255_1_234
10
23.8758775
20
0.3354976
40
0.2685315
50
353.2248685
51
0.0169286
0
ARC
8
DEFAULT_255_1_234
10
23.8968652
20
0.337795
40
0.2475536
50
359.4866256
51
15.9339782
0
ARC
8
DEFAULT_255_1_234
10
23.9475637
20
0.3514286
40
0.1950618
50
16.1714718
51
43.5284424
0
ARC
8
DEFAULT_255_1_234
10
23.9552946
20
0.3591573
40
0.184134
50
43.4415429
51
83.1661404
0
ARC
8
DEFAULT_255_1_234
10
23.9418864
20
0.2854771
40
0.258926
50
82.160215
51
90.1505798
0
ARC
8
DEFAULT_255_1_234
10
23.9387291
20
0.2317865
40
0.3126255
50
89.5460705
51
102.5418777
0
ARC
8
DEFAULT_255_1_234
10
23.9144377
20
0.3348665
40
0.2067346
50
102.1739365
51
129.2061916
0
ARC
8
DEFAULT_255_1_234
10
23.9065449
20
0.3473094
40
0.1921118
50
129.7279328
51
135.7542026
0
ARC
8
DEFAULT_255_1_234
10
23.9186977
20
0.3376045
40
0.2075944
50
136.175737
51
166.3674722
0
ARC
8
DEFAULT_255_1_234
10
24.0193896
20
0.3106182
40
0.3118201
50
165.9092917
51
178.8683903
0
ARC
8
DEFAULT_255_1_234
10
24.1058757
20
0.3059179
40
0.3983935
50
178.438168
51
180.0083905
0
ARC
8
DEFAULT_255_1_234
10
23.9657359
20
0.3098231
40
0.4068601
50
163.2878735
51
180.5581814
0
ARC
8
DEFAULT_255_1_234
10
23.8855621
20
0.331884
40
0.3237344
50
133.454115
51
162.9470031
0
ARC
8
DEFAULT_255_1_234
10
23.9034162
20
0.3129
40
0.349795
50
100.7869394
51
133.4384016
0
ARC
8
DEFAULT_255_1_234
10
23.9381934
20
0.1580319
40
0.5084616
50
89.6605301
51
101.3704185
0
ARC
8
DEFAULT_255_1_234
10
23.9448273
20
0.1641496
40
0.502348
50
78.2171172
51
90.4130393
0
ARC
8
DEFAULT_255_1_234
10
23.9803351
20
0.3265637
40
0.3361092
50
55.9268222
51
78.4888551
0
ARC
8
DEFAULT_255_1_234
10
23.9999791
20
0.3604324
40
0.2970617
50
47.9292255
51
55.4054003
0
ARC
8
DEFAULT_255_1_234
10
24.0101352
20
0.3707502
40
0.2825983
50
4.3347696
51
48.0560701
0
ARC
8
DEFAULT_255_1_234
10
23.9005745
20
0.3537601
40
0.393225
50
359.925209
51
5.5967654
0
ARC
8
DEFAULT_255_1_234
10
23.9434637
20
0.3593816
40
0.3503892
50
337.8914096
51
358.9967724
0
ARC
8
DEFAULT_255_1_234
10
23.6721049
20
0.4640706
40
0.6412172
50
326.9135351
51
338.3505194
0
ARC
8
DEFAULT_255_1_234
10
23.2735353
20
0.7195284
40
1.1146189
50
319.6472867
51
327.095818
0
ARC
8
DEFAULT_255_1_234
10
22.8902356
20
1.0357
40
1.6114559
50
317.2586784
51
319.9046139
0
LINE
8
DEFAULT_255_2_778
10
9.3931501
20
2.5135333
11
17.3306501
21
2.5135333
0
LINE
8
DEFAULT_255_2_778
10
17.3306501
20
2.5135333
11
17.3306501
21
-2.7781667
0
LINE
8
DEFAULT_255_2_778
10
17.3306501
20
-2.7781667
11
9.3931501
21
-2.7781667
0
LINE
8
DEFAULT_255_2_778
10
9.3931501
20
-2.7781667
11
9.3931501
21
2.5135333
0
LINE
8
DEFAULT_255_2_778
10
2.7785503
20
-1.4552
11
26.5910503
21
-1.4552
0
LINE
8
DEFAULT_255_2_778
10
14.6848084
20
-2.7780667
11
14.6848084
21
-4.1010667
0
LINE
8
DEFAULT_255_2_778
10
14.6848084
20
-4.1010667
11
21.2994084
21
-4.1010667
0
LINE
8
DEFAULT_255_2_778
10
21.2994084
20
-4.1010667
11
21.2994084
21
1.1906333
0
LINE
8
DEFAULT_255_2_778
10
17.3306125
20
-1.4552417
11
15.3462125
21
-0.7937417
0
LINE
8
DEFAULT_255_2_778
10
15.3462125
20
-0.7937417
11
15.3462125
21
-2.1166417
0
LINE
8
DEFAULT_255_2_778
10
15.3462125
20
-2.1166417
11
17.3306125
21
-1.4552417
0
ARC
8
DEFAULT_255_2_778
10
21.3095952
20
3.8400268
40
2.6560309
50
160.7095027
51
180.0775207
0
ARC
8
DEFAULT_255_2_778
10
21.2935206
20
3.8419241
40
2.6402344
50
102.0301591
51
160.6331218
0
ARC
8
DEFAULT_255_2_778
10
21.2976006
20
3.8065408
40
2.6756931
50
89.9621802
51
101.9576865
0
ARC
8
DEFAULT_255_2_778
10
21.3030411
20
3.8268235
40
2.6554123
50
70.3567975
51
90.0792807
0
ARC
8
DEFAULT_255_2_778
10
21.3048767
20
3.8421929
40
2.6403224
50
11.9023555
51
70.2821965
0
ARC
8
DEFAULT_255_2_778
10
21.2693547
20
3.8381699
40
2.6759126
50
359.9628159
51
11.829777
0
ARC
8
DEFAULT_255_2_778
10
21.2900283
20
3.8327623
40
2.655241
50
340.3554002
51
0.0792127
0
ARC
8
DEFAULT_255_2_778
10
21.3051203
20
3.8310583
40
2.6404568
50
281.9019784
51
340.2801285
0
ARC
8
DEFAULT_255_2_778
10
21.3011012
20
3.8665109
40
2.6759781
50
269.962864
51
281.8296308
0
ARC
8
DEFAULT_255_2_778
10
21.2956903
20
3.8456704
40
2.6551397
50
250.3550189
51
270.0793355
0
ARC
8
DEFAULT_255_2_778
10
21.2940162
20
3.8305794
40
2.6403665
50
191.9001656
51
250.2791382
0
ARC
8
DEFAULT_255_2_778
10
21.3297473
20
3.8346979
40
2.676181
50
179.9628467
51
191.8287004
0
LINE
8
DEFAULT_255_2_778
10
18.6535667
20
3.8364333
11
18.6535667
21
3.8364333
0
LINE
8
DEFAULT_255_2_778
10
13.6264834
20
2.5136166
11
12.0389834
21
2.8075166
0
LINE
8
DEFAULT_255_2_778
10
12.0389834
20
2.8075166
11
14.6847834
21
3.2486166
0
LINE
8
DEFAULT_255_2_778
10
14.6847834
20
3.2486166
11
12.0389834
21
3.6894166
0
LINE
8
DEFAULT_255_2_778
10
12.0389834
20
3.6894166
11
14.6847834
21
4.1304166
0
LINE
8
DEFAULT_255_2_778
10
14.6847834
20
4.1304166
11
12.0389834
21
4.5715166
0
LINE
8
DEFAULT_255_2_778
10
12.0389834
20
4.5715166
11
14.6847834
21
5.0126166
0
LINE
8
DEFAULT_255_2_778
10
14.6847834
20
5.0126166
11
13.6264834
21
5.1594166
0
LINE
8
DEFAULT_255_2_778
10
17.2487922
20
2.5135918
11
9.7899922
21
5.2283918
0
LINE
8
DEFAULT_255_2_778
10
9.7899922
20
5.2283918
11
11.4284922
21
3.9280918
0
LINE
8
DEFAULT_255_2_778
10
11.4284922
20
3.9280918
11
11.8808922
21
5.1712918
0
LINE
8
DEFAULT_255_2_778
10
11.8808922
20
5.1712918
11
9.7899922
21
5.2283918
0
LINE
8
DEFAULT_255_2_778
10
23.1515167
20
1.9842833
11
19.4473167
21
5.6884833
0
LINE
8
DEFAULT_255_2_778
10
19.4473167
20
5.6884833
11
20.6821167
21
3.5275833
0
LINE
8
DEFAULT_255_2_778
10
20.6821167
20
3.5275833
11
21.6082167
21
4.4536833
0
LINE
8
DEFAULT_255_2_778
10
21.6082167
20
4.4536833
11
19.4473167
21
5.6884833
0
ENDSEC
0
EOF