0
SECTION
2
HEADER
9
$MEASUREMENT
70
1
0
ENDSEC
0
SECTION
2
TABLES
0
TABLE
2
LTYPE
0
LTYPE
72
65
70
64
2
CONTINUOUS
3
______
73
0
40
0
0
ENDTAB
0
TABLE
2
LAYER
0
LAYER
2
DEFAULT_255_1_234
70
0
62
255
6
CONTINUOUS
0
LAYER
2
DEFAULT_255_2_778
70
0
62
255
6
CONTINUOUS
0
ENDTAB
0
ENDSEC
0
SECTION
2
ENTITIES
0
LINE
8
DEFAULT_255_1_234
10
4.4807137
20
0.6560433
11
4.4807137
21
-0.519
0
LINE
8
DEFAULT_255_1_234
10
4.4807137
20
-0.519
11
4.3313234
21
-0.519
0
LINE
8
DEFAULT_255_1_234
10
4.3313234
20
-0.519
11
4.3313234
21
0.4713133
0
LINE
8
DEFAULT_255_1_234
10
4.3313234
20
0.4713133
11
4.0317396
21
0.3612785
0
LINE
8
DEFAULT_255_1_234
10
4.0317396
20
0.3612785
11
4.0317396
21
0.4962117
0
LINE
8
DEFAULT_255_1_234
10
4.0317396
20
0.4962117
11
4.4574217
21
0.6560433
0
LINE
8
DEFAULT_255_1_234
10
4.4574217
20
0.6560433
11
4.4807137
21
0.6560433
0
LINE
8
DEFAULT_255_1_234
10
24.3476119
20
-0.3977208
11
24.3476119
21
-0.519
0
LINE
8
DEFAULT_255_1_234
10
24.3476119
20
-0.519
11
23.581384
21
-0.519
0
LINE
8
DEFAULT_255_1_234
10
23.581384
20
-0.519
11
23.581384
21
-0.4121779
0
LINE
8
DEFAULT_255_1_234
10
23.581384
20
-0.4121779
11
23.9861836
21
0.0375995
0
LINE
8
DEFAULT_255_1_234
10
23.7074823
20
0.3058595
11
23.5588952
21
0.3058595
0
LINE
8
DEFAULT_255_1_234
10
24.0737296
20
-0.0579782
11
23.7604918
21
-0.3977208
0
LINE
8
DEFAULT_255_1_234
10
23.7604918
20
-0.3977208
11
24.3476119
21
-0.3977208
0
ARC
8
DEFAULT_255_1_234
10
22.637167
20
1.2305527
40
1.8008286
50
318.5132453
51
320.7828378
0
ARC
8
DEFAULT_255_1_234
10
23.1658644
20
0.8002426
40
1.1191493
50
320.7372736
51
323.9737074
0
ARC
8
DEFAULT_255_1_234
10
23.5578501
20
0.5162361
40
0.6350923
50
323.8961724
51
328.6421089
0
ARC
8
DEFAULT_255_1_234
10
23.7625096
20
0.3900031
40
0.3946393
50
328.8299013
51
331.789948
0
ARC
8
DEFAULT_255_1_234
10
23.8622274
20
0.3385509
40
0.2824501
50
331.4255242
51
352.9364833
0
ARC
8
DEFAULT_255_1_234
10
23.8758775
20
0.3354976
40
0.2685315
50
353.2248685
51
0.0169286
0
ARC
8
DEFAULT_255_1_234
10
23.8968652
20
0.337795
40
0.2475536
50
359.4866256
51
15.9339782
0
ARC
8
DEFAULT_255_1_234
10
23.9475637
20
0.3514286
40
0.1950618
50
16.1714718
51
43.5284424
0
ARC
8
DEFAULT_255_1_234
10
23.9552946
20
0.3591573
40
0.184134
50
43.4415429
51
83.1661404
0
ARC
8
DEFAULT_255_1_234
10
23.9418864
20
0.2854771
40
0.258926
50
82.160215
51
90.1505798
0
ARC
8
DEFAULT_255_1_234
10
23.9387291
20
0.2317865
40
0.3126255
50
89.5460705
51
102.5418777
0
ARC
8
DEFAULT_255_1_234
10
23.9144377
20
0.3348665
40
0.2067346
50
102.1739365
51
129.2061916
0
ARC
8
DEFAULT_255_1_234
10
23.9065449
20
0.3473094
40
0.1921118
50
129.7279328
51
135.7542026
0
ARC
8
DEFAULT_255_1_234
10
23.9186977
20
0.3376045
40
0.2075944
50
136.175737
51
166.3674722
0
ARC
8
DEFAULT_255_1_234
10
24.0193896
20
0.3106182
40
0.3118201
50
165.9092917
51
178.8683903
0
ARC
8
DEFAULT_255_1_234
10
24.1058757
20
0.3059179
40
0.3983935
50
178.438168
51
180.0083905
0
ARC
8
DEFAULT_255_1_234
10
23.9657359
20
0.3098231
40
0.4068601
50
163.2878735
51
180.5581814
0
ARC
8
DEFAULT_255_1_234
10
23.8855621
20
0.331884
40
0.3237344
50
133.454115
51
162.9470031
0
ARC
8
DEFAULT_255_1_234
10
23.9034162
20
0.3129
40
0.349795
50
100.7869394
51
133.4384016
0
ARC
8
DEFAULT_255_1_234
10
23.9381934
20
0.1580319
40
0.5084616
50
89.6605301
51
101.3704185
0
ARC
8
DEFAULT_255_1_234
10
23.9448273
20
0.1641496
40
0.502348
50
78.2171172
51
90.4130393
0
ARC
8
DEFAULT_255_1_234
10
23.9803351
20
0.3265637
40
0.3361092
50
55.9268222
51
78.4888551
0
ARC
8
DEFAULT_255_1_234
10
23.9999791
20
0.3604324
40
0.2970617
50
47.9292255
51
55.4054003
0
ARC
8
DEFAULT_255_1_234
10
24.0101352
20
0.3707502
40
0.2825983
50
4.3347696
51
48.0560701
0
ARC
8
DEFAULT_255_1_234
10
23.9005745
20
0.3537601
40
0.393225
50
359.925209
51
5.5967654
0
ARC
8
DEFAULT_255_1_234
10
23.9434637
20
0.3593816
40
0.3503892
50
337.8914096
51
358.9967724
0
ARC
8
DEFAULT_255_1_234
10
23.6721049
20
0.4640706
40
0.6412172
50
326.9135351
51
338.3505194
0
ARC
8
DEFAULT_255_1_234
10
23.2735353
20
0.7195284
40
1.1146189
50
319.6472867
51
327.095818
0
ARC
8
DEFAULT_255_1_234
10
22.8902356
20
1.0357
40
1.6114559
50
317.2586784
51
319.9046139
0
LINE
8
DEFAULT_255_2_778
10
8.0702335
20
2.5135333
11
18.6535335
21
2.5135333
0
LINE
8
DEFAULT_255_2_778
10
18.6535335
20
2.5135333
11
18.6535335
21
-2.7781667
0
LINE
8
DEFAULT_255_2_778
10
18.6535335
20
-2.7781667
11
8.0702335
21
-2.7781667
0
LINE
8
DEFAULT_255_2_778
10
8.0702335
20
-2.7781667
11
8.0702335
21
2.5135333
0
LINE
8
DEFAULT_255_2_778
10
13.3618918
20
-2.7781834
11
13.3618918
21
-4.1010834
0
LINE
8
DEFAULT_255_2_778
10
13.3618918
20
-4.1010834
11
22.6222918
21
-4.1010834
0
LINE
8
DEFAULT_255_2_778
10
22.6222918
20
-4.1010834
11
22.6222918
21
-1.4552834
0
LINE
8
DEFAULT_255_2_778
10
18.6535501
20
-1.4552
11
26.5910501
21
-1.4552
0
LINE
8
DEFAULT_255_2_778
10
2.7785169
20
-1.4552
11
16.0077169
21
-1.4552
0
LINE
8
DEFAULT_255_2_778
10
16.0077125
20
-1.4552417
11
14.0233125
21
-0.7937417
0
LINE
8
DEFAULT_255_2_778
10
14.0233125
20
-0.7937417
11
14.0233125
21
-2.1166417
0
LINE
8
DEFAULT_255_2_778
10
14.0233125
20
-2.1166417
11
16.0077125
21
-1.4552417
0
LINE
8
DEFAULT_255_2_778
10
8.0702125
20
-1.4552417
11
10.0546125
21
-0.7937417
0
LINE
8
DEFAULT_255_2_778
10
10.0546125
20
-0.7937417
11
10.0546125
21
-2.1166417
0
LINE
8
DEFAULT_255_2_778
10
10.0546125
20
-2.1166417
11
8.0702125
21
-1.4552417
0
LINE
8
DEFAULT_255_2_778
10
16.0077
20
-0.7937417
11
16.0077
21
-2.1166417
0
LINE
8
DEFAULT_255_2_778
10
11.7742834
20
5.1593166
11
13.3617834
21
4.8653166
0
LINE
8
DEFAULT_255_2_778
10
13.3617834
20
4.8653166
11
10.7159834
21
4.4243166
0
LINE
8
DEFAULT_255_2_778
10
10.7159834
20
4.4243166
11
13.3617834
21
3.9835166
0
LINE
8
DEFAULT_255_2_778
10
13.3617834
20
3.9835166
11
10.7159834
21
3.5424166
0
LINE
8
DEFAULT_255_2_778
10
10.7159834
20
3.5424166
11
13.3617834
21
3.1014166
0
LINE
8
DEFAULT_255_2_778
10
13.3617834
20
3.1014166
11
10.7159834
21
2.6603166
0
LINE
8
DEFAULT_255_2_778
10
10.7159834
20
2.6603166
11
11.7742834
21
2.5135166
0
LINE
8
DEFAULT_255_2_778
10
8.0701417
20
1.9843083
11
6.7472417
21
0.5291083
0
LINE
8
DEFAULT_255_2_778
10
6.7472417
20
0.5291083
11
8.0701417
21
-0.9260917
0
LINE
8
DEFAULT_255_2_778
10
8.0701417
20
-0.9260917
11
8.0701417
21
1.9843083
0
LINE
8
DEFAULT_255_2_778
10
8.0701417
20
1.9843083
11
8.0701417
21
1.9843083
0
LINE
8
DEFAULT_255_2_778
10
8.7316568
20
2.5135749
11
15.6057568
21
6.4822749
0
LINE
8
DEFAULT_255_2_778
10
15.6057568
20
6.4822749
11
13.5564568
21
6.0629749
0
LINE
8
DEFAULT_255_2_778
10
13.5564568
20
6.0629749
11
14.2179568
21
4.9172749
0
LINE
8
DEFAULT_255_2_778
10
14.2179568
20
4.9172749
11
15.6057568
21
6.4822749
0
ENDSEC
0
EOF