0
SECTION
2
HEADER
9
$MEASUREMENT
70
1
0
ENDSEC
0
SECTION
2
TABLES
0
TABLE
2
LTYPE
0
LTYPE
72
65
70
64
2
CONTINUOUS
3
______
73
0
40
0
0
ENDTAB
0
TABLE
2
LAYER
0
LAYER
2
DEFAULT_255_2_778
70
0
62
255
6
CONTINUOUS
0
LAYER
2
DEFAULT_255_1_234
70
0
62
255
6
CONTINUOUS
0
ENDTAB
0
ENDSEC
0
SECTION
2
ENTITIES
0
LINE
8
DEFAULT_255_2_778
10
8.0702335
20
3.8364333
11
18.6535335
21
3.8364333
0
LINE
8
DEFAULT_255_2_778
10
18.6535335
20
3.8364333
11
18.6535335
21
-1.4552667
0
LINE
8
DEFAULT_255_2_778
10
18.6535335
20
-1.4552667
11
8.0702335
21
-1.4552667
0
LINE
8
DEFAULT_255_2_778
10
8.0702335
20
-1.4552667
11
8.0702335
21
3.8364333
0
LINE
8
DEFAULT_255_2_778
10
12.0389501
20
-0.1322834
11
12.0389501
21
-2.7780834
0
LINE
8
DEFAULT_255_2_778
10
12.0389501
20
-2.7780834
11
19.9764501
21
-2.7780834
0
LINE
8
DEFAULT_255_2_778
10
19.9764501
20
-2.7780834
11
19.9764501
21
-0.1322834
0
LINE
8
DEFAULT_255_2_778
10
18.6535501
20
-0.1323
11
26.5910501
21
-0.1323
0
LINE
8
DEFAULT_255_2_778
10
2.7785169
20
-0.1323
11
16.0077169
21
-0.1323
0
LINE
8
DEFAULT_255_2_778
10
16.0077125
20
-0.1323417
11
14.0233125
21
0.5291583
0
LINE
8
DEFAULT_255_2_778
10
14.0233125
20
0.5291583
11
14.0233125
21
-0.7937417
0
LINE
8
DEFAULT_255_2_778
10
14.0233125
20
-0.7937417
11
16.0077125
21
-0.1323417
0
LINE
8
DEFAULT_255_2_778
10
8.0702125
20
-0.1323417
11
10.0546125
21
0.5291583
0
LINE
8
DEFAULT_255_2_778
10
10.0546125
20
0.5291583
11
10.0546125
21
-0.7937417
0
LINE
8
DEFAULT_255_2_778
10
10.0546125
20
-0.7937417
11
8.0702125
21
-0.1323417
0
LINE
8
DEFAULT_255_2_778
10
16.0077
20
0.5291583
11
16.0077
21
-0.7937417
0
LINE
8
DEFAULT_255_2_778
10
8.0701417
20
3.4395083
11
6.7472417
21
1.9843083
0
LINE
8
DEFAULT_255_2_778
10
6.7472417
20
1.9843083
11
8.0701417
21
0.5291083
0
LINE
8
DEFAULT_255_2_778
10
8.0701417
20
0.5291083
11
8.0701417
21
3.4395083
0
LINE
8
DEFAULT_255_2_778
10
8.0701417
20
3.4395083
11
8.0701417
21
3.4395083
0
LINE
8
DEFAULT_255_2_778
10
10.7159834
20
7.8051749
11
13.3617834
21
7.8051749
0
LINE
8
DEFAULT_255_2_778
10
13.3617834
20
7.8051749
11
13.3617834
21
3.8364749
0
LINE
8
DEFAULT_255_2_778
10
13.3617834
20
3.8364749
11
10.7159834
21
3.8364749
0
LINE
8
DEFAULT_255_2_778
10
10.7159834
20
3.8364749
11
10.7159834
21
7.8051749
0
LINE
8
DEFAULT_255_2_778
10
13.3617834
20
4.3656166
11
10.7159834
21
7.0114166
0
LINE
8
DEFAULT_255_2_778
10
8.5993568
20
3.8364749
11
15.4734568
21
7.8051749
0
LINE
8
DEFAULT_255_2_778
10
15.4734568
20
7.8051749
11
13.4241568
21
7.3858749
0
LINE
8
DEFAULT_255_2_778
10
13.4241568
20
7.3858749
11
14.0856568
21
6.2401749
0
LINE
8
DEFAULT_255_2_778
10
14.0856568
20
6.2401749
11
15.4734568
21
7.8051749
0
LINE
8
DEFAULT_255_1_234
10
4.7668119
20
0.9251792
11
4.7668119
21
0.8039
0
LINE
8
DEFAULT_255_1_234
10
4.7668119
20
0.8039
11
4.000584
21
0.8039
0
LINE
8
DEFAULT_255_1_234
10
4.000584
20
0.8039
11
4.000584
21
0.9107221
0
LINE
8
DEFAULT_255_1_234
10
4.000584
20
0.9107221
11
4.4053836
21
1.3604995
0
LINE
8
DEFAULT_255_1_234
10
4.1266823
20
1.6287595
11
3.9780952
21
1.6287595
0
LINE
8
DEFAULT_255_1_234
10
4.4929296
20
1.2649218
11
4.1796918
21
0.9251792
0
LINE
8
DEFAULT_255_1_234
10
4.1796918
20
0.9251792
11
4.7668119
21
0.9251792
0
ARC
8
DEFAULT_255_1_234
10
3.056367
20
2.5534527
40
1.8008286
50
318.5132453
51
320.7828378
0
ARC
8
DEFAULT_255_1_234
10
3.5850644
20
2.1231426
40
1.1191493
50
320.7372736
51
323.9737074
0
ARC
8
DEFAULT_255_1_234
10
3.9770501
20
1.8391361
40
0.6350923
50
323.8961724
51
328.6421089
0
ARC
8
DEFAULT_255_1_234
10
4.1817096
20
1.7129031
40
0.3946393
50
328.8299013
51
331.789948
0
ARC
8
DEFAULT_255_1_234
10
4.2814274
20
1.6614509
40
0.2824501
50
331.4255242
51
352.9364833
0
ARC
8
DEFAULT_255_1_234
10
4.2950775
20
1.6583976
40
0.2685315
50
353.2248685
51
0.0169286
0
ARC
8
DEFAULT_255_1_234
10
4.3160652
20
1.660695
40
0.2475536
50
359.4866256
51
15.9339782
0
ARC
8
DEFAULT_255_1_234
10
4.3667637
20
1.6743286
40
0.1950618
50
16.1714718
51
43.5284424
0
ARC
8
DEFAULT_255_1_234
10
4.3744946
20
1.6820573
40
0.184134
50
43.4415429
51
83.1661404
0
ARC
8
DEFAULT_255_1_234
10
4.3610864
20
1.6083771
40
0.258926
50
82.160215
51
90.1505798
0
ARC
8
DEFAULT_255_1_234
10
4.3579291
20
1.5546865
40
0.3126255
50
89.5460705
51
102.5418777
0
ARC
8
DEFAULT_255_1_234
10
4.3336377
20
1.6577665
40
0.2067346
50
102.1739365
51
129.2061916
0
ARC
8
DEFAULT_255_1_234
10
4.3257449
20
1.6702094
40
0.1921118
50
129.7279328
51
135.7542026
0
ARC
8
DEFAULT_255_1_234
10
4.3378977
20
1.6605045
40
0.2075944
50
136.175737
51
166.3674722
0
ARC
8
DEFAULT_255_1_234
10
4.4385896
20
1.6335182
40
0.3118201
50
165.9092917
51
178.8683903
0
ARC
8
DEFAULT_255_1_234
10
4.5250757
20
1.6288179
40
0.3983935
50
178.438168
51
180.0083905
0
ARC
8
DEFAULT_255_1_234
10
4.3849359
20
1.6327231
40
0.4068601
50
163.2878735
51
180.5581814
0
ARC
8
DEFAULT_255_1_234
10
4.3047621
20
1.654784
40
0.3237344
50
133.454115
51
162.9470031
0
ARC
8
DEFAULT_255_1_234
10
4.3226162
20
1.6358
40
0.349795
50
100.7869394
51
133.4384016
0
ARC
8
DEFAULT_255_1_234
10
4.3573934
20
1.4809319
40
0.5084616
50
89.6605301
51
101.3704185
0
ARC
8
DEFAULT_255_1_234
10
4.3640273
20
1.4870496
40
0.502348
50
78.2171172
51
90.4130393
0
ARC
8
DEFAULT_255_1_234
10
4.3995351
20
1.6494637
40
0.3361092
50
55.9268222
51
78.4888551
0
ARC
8
DEFAULT_255_1_234
10
4.4191791
20
1.6833324
40
0.2970617
50
47.9292255
51
55.4054003
0
ARC
8
DEFAULT_255_1_234
10
4.4293352
20
1.6936502
40
0.2825983
50
4.3347696
51
48.0560701
0
ARC
8
DEFAULT_255_1_234
10
4.3197745
20
1.6766601
40
0.393225
50
359.925209
51
5.5967654
0
ARC
8
DEFAULT_255_1_234
10
4.3626637
20
1.6822816
40
0.3503892
50
337.8914096
51
358.9967724
0
ARC
8
DEFAULT_255_1_234
10
4.0913049
20
1.7869706
40
0.6412172
50
326.9135351
51
338.3505194
0
ARC
8
DEFAULT_255_1_234
10
3.6927353
20
2.0424284
40
1.1146189
50
319.6472867
51
327.095818
0
ARC
8
DEFAULT_255_1_234
10
3.3094356
20
2.3586
40
1.6114559
50
317.2586784
51
319.9046139
0
LINE
8
DEFAULT_255_1_234
10
24.0780137
20
1.9789433
11
24.0780137
21
0.8039
0
LINE
8
DEFAULT_255_1_234
10
24.0780137
20
0.8039
11
23.9286234
21
0.8039
0
LINE
8
DEFAULT_255_1_234
10
23.9286234
20
0.8039
11
23.9286234
21
1.7942133
0
LINE
8
DEFAULT_255_1_234
10
23.9286234
20
1.7942133
11
23.6290396
21
1.6841785
0
LINE
8
DEFAULT_255_1_234
10
23.6290396
20
1.6841785
11
23.6290396
21
1.8191117
0
LINE
8
DEFAULT_255_1_234
10
23.6290396
20
1.8191117
11
24.0547217
21
1.9789433
0
LINE
8
DEFAULT_255_1_234
10
24.0547217
20
1.9789433
11
24.0780137
21
1.9789433
0
ENDSEC
0
EOF