0
SECTION
2
HEADER
9
$MEASUREMENT
70
1
0
ENDSEC
0
SECTION
2
TABLES
0
TABLE
2
LTYPE
0
LTYPE
72
65
70
64
2
CONTINUOUS
3
______
73
0
40
0
0
ENDTAB
0
TABLE
2
LAYER
0
LAYER
2
DEFAULT_255_1_234
70
0
62
255
6
CONTINUOUS
0
LAYER
2
DEFAULT_255_2_778
70
0
62
255
6
CONTINUOUS
0
ENDTAB
0
ENDSEC
0
SECTION
2
ENTITIES
0
LINE
8
DEFAULT_255_1_234
10
4.3653137
20
-0.6674567
11
4.3653137
21
-1.8425
0
LINE
8
DEFAULT_255_1_234
10
4.3653137
20
-1.8425
11
4.2159234
21
-1.8425
0
LINE
8
DEFAULT_255_1_234
10
4.2159234
20
-1.8425
11
4.2159234
21
-0.8521867
0
LINE
8
DEFAULT_255_1_234
10
4.2159234
20
-0.8521867
11
3.9163396
21
-0.9622215
0
LINE
8
DEFAULT_255_1_234
10
3.9163396
20
-0.9622215
11
3.9163396
21
-0.8272883
0
LINE
8
DEFAULT_255_1_234
10
3.9163396
20
-0.8272883
11
4.3420217
21
-0.6674567
0
LINE
8
DEFAULT_255_1_234
10
4.3420217
20
-0.6674567
11
4.3653137
21
-0.6674567
0
LINE
8
DEFAULT_255_1_234
10
4.6350119
20
13.5753792
11
4.6350119
21
13.4541
0
LINE
8
DEFAULT_255_1_234
10
4.6350119
20
13.4541
11
3.868784
21
13.4541
0
LINE
8
DEFAULT_255_1_234
10
3.868784
20
13.4541
11
3.868784
21
13.5609221
0
LINE
8
DEFAULT_255_1_234
10
3.868784
20
13.5609221
11
4.2735836
21
14.0106995
0
LINE
8
DEFAULT_255_1_234
10
3.9948823
20
14.2789595
11
3.8462952
21
14.2789595
0
LINE
8
DEFAULT_255_1_234
10
4.3611296
20
13.9151218
11
4.0478918
21
13.5753792
0
LINE
8
DEFAULT_255_1_234
10
4.0478918
20
13.5753792
11
4.6350119
21
13.5753792
0
ARC
8
DEFAULT_255_1_234
10
2.924567
20
15.2036527
40
1.8008286
50
318.5132453
51
320.7828378
0
ARC
8
DEFAULT_255_1_234
10
3.4532644
20
14.7733426
40
1.1191493
50
320.7372736
51
323.9737074
0
ARC
8
DEFAULT_255_1_234
10
3.8452501
20
14.4893361
40
0.6350923
50
323.8961724
51
328.6421089
0
ARC
8
DEFAULT_255_1_234
10
4.0499096
20
14.3631031
40
0.3946393
50
328.8299013
51
331.789948
0
ARC
8
DEFAULT_255_1_234
10
4.1496274
20
14.3116509
40
0.2824501
50
331.4255242
51
352.9364833
0
ARC
8
DEFAULT_255_1_234
10
4.1632775
20
14.3085976
40
0.2685315
50
353.2248685
51
0.0169286
0
ARC
8
DEFAULT_255_1_234
10
4.1842652
20
14.310895
40
0.2475536
50
359.4866256
51
15.9339782
0
ARC
8
DEFAULT_255_1_234
10
4.2349637
20
14.3245286
40
0.1950618
50
16.1714718
51
43.5284424
0
ARC
8
DEFAULT_255_1_234
10
4.2426946
20
14.3322573
40
0.184134
50
43.4415429
51
83.1661404
0
ARC
8
DEFAULT_255_1_234
10
4.2292864
20
14.2585771
40
0.258926
50
82.160215
51
90.1505798
0
ARC
8
DEFAULT_255_1_234
10
4.2261291
20
14.2048865
40
0.3126255
50
89.5460705
51
102.5418777
0
ARC
8
DEFAULT_255_1_234
10
4.2018377
20
14.3079665
40
0.2067346
50
102.1739365
51
129.2061916
0
ARC
8
DEFAULT_255_1_234
10
4.1939449
20
14.3204094
40
0.1921118
50
129.7279328
51
135.7542026
0
ARC
8
DEFAULT_255_1_234
10
4.2060977
20
14.3107045
40
0.2075944
50
136.175737
51
166.3674722
0
ARC
8
DEFAULT_255_1_234
10
4.3067896
20
14.2837182
40
0.3118201
50
165.9092917
51
178.8683903
0
ARC
8
DEFAULT_255_1_234
10
4.3932757
20
14.2790179
40
0.3983935
50
178.438168
51
180.0083905
0
ARC
8
DEFAULT_255_1_234
10
4.2531359
20
14.2829231
40
0.4068601
50
163.2878735
51
180.5581814
0
ARC
8
DEFAULT_255_1_234
10
4.1729621
20
14.304984
40
0.3237344
50
133.454115
51
162.9470031
0
ARC
8
DEFAULT_255_1_234
10
4.1908162
20
14.286
40
0.349795
50
100.7869394
51
133.4384016
0
ARC
8
DEFAULT_255_1_234
10
4.2255934
20
14.1311319
40
0.5084616
50
89.6605301
51
101.3704185
0
ARC
8
DEFAULT_255_1_234
10
4.2322273
20
14.1372496
40
0.502348
50
78.2171172
51
90.4130393
0
ARC
8
DEFAULT_255_1_234
10
4.2677351
20
14.2996637
40
0.3361092
50
55.9268222
51
78.4888551
0
ARC
8
DEFAULT_255_1_234
10
4.2873791
20
14.3335324
40
0.2970617
50
47.9292255
51
55.4054003
0
ARC
8
DEFAULT_255_1_234
10
4.2975352
20
14.3438502
40
0.2825983
50
4.3347696
51
48.0560701
0
ARC
8
DEFAULT_255_1_234
10
4.1879745
20
14.3268601
40
0.393225
50
359.925209
51
5.5967654
0
ARC
8
DEFAULT_255_1_234
10
4.2308637
20
14.3324816
40
0.3503892
50
337.8914096
51
358.9967724
0
ARC
8
DEFAULT_255_1_234
10
3.9595049
20
14.4371706
40
0.6412172
50
326.9135351
51
338.3505194
0
ARC
8
DEFAULT_255_1_234
10
3.5609353
20
14.6926284
40
1.1146189
50
319.6472867
51
327.095818
0
ARC
8
DEFAULT_255_1_234
10
3.1776356
20
15.0088
40
1.6114559
50
317.2586784
51
319.9046139
0
LINE
8
DEFAULT_255_2_778
10
10.8479667
20
2.5135499
11
5.5562667
21
2.5135499
0
LINE
8
DEFAULT_255_2_778
10
5.5562667
20
2.5135499
11
5.5562667
21
10.4510499
0
LINE
8
DEFAULT_255_2_778
10
5.5562667
20
10.4510499
11
10.8479667
21
10.4510499
0
LINE
8
DEFAULT_255_2_778
10
10.8479667
20
10.4510499
11
10.8479667
21
2.5135499
0
LINE
8
DEFAULT_255_2_778
10
6.8792
20
-2.7780836
11
6.8792
21
15.7427164
0
LINE
8
DEFAULT_255_2_778
10
6.7468292
20
10.4510333
11
5.5562292
21
11.7739333
0
LINE
8
DEFAULT_255_2_778
10
5.5562292
20
11.7739333
11
4.2333292
21
11.7739333
0
LINE
8
DEFAULT_255_2_778
10
4.2333292
20
11.7739333
11
4.2333292
21
6.4822333
0
LINE
8
DEFAULT_255_2_778
10
4.2333292
20
6.4822333
11
5.5562292
21
6.4822333
0
LINE
8
DEFAULT_255_2_778
10
6.8792333
20
10.4510416
11
7.4083333
21
8.5989416
0
LINE
8
DEFAULT_255_2_778
10
7.4083333
20
8.5989416
11
6.3500333
21
8.5989416
0
LINE
8
DEFAULT_255_2_778
10
6.3500333
20
8.5989416
11
6.8792333
21
10.4510416
0
LINE
8
DEFAULT_255_2_778
10
6.8792333
20
2.5135416
11
6.3500333
21
4.3656416
0
LINE
8
DEFAULT_255_2_778
10
6.3500333
20
4.3656416
11
7.4083333
21
4.3656416
0
LINE
8
DEFAULT_255_2_778
10
7.4083333
20
4.3656416
11
6.8792333
21
2.5135416
0
LINE
8
DEFAULT_255_2_778
10
7.4082917
20
2.5135583
11
8.8634917
21
1.1906583
0
LINE
8
DEFAULT_255_2_778
10
8.8634917
20
1.1906583
11
10.3186917
21
2.5135583
0
LINE
8
DEFAULT_255_2_778
10
10.3186917
20
2.5135583
11
7.4082917
21
2.5135583
0
LINE
8
DEFAULT_255_2_778
10
10.8478834
20
3.8364166
11
11.0682834
21
5.1593166
0
LINE
8
DEFAULT_255_2_778
10
11.0682834
20
5.1593166
11
11.5093834
21
2.5135166
0
LINE
8
DEFAULT_255_2_778
10
11.5093834
20
2.5135166
11
11.9503834
21
5.1593166
0
LINE
8
DEFAULT_255_2_778
10
11.9503834
20
5.1593166
11
12.3911834
21
2.5135166
0
LINE
8
DEFAULT_255_2_778
10
12.3911834
20
2.5135166
11
12.8322834
21
5.1593166
0
LINE
8
DEFAULT_255_2_778
10
12.8322834
20
5.1593166
11
13.2732834
21
2.5135166
0
LINE
8
DEFAULT_255_2_778
10
13.2732834
20
2.5135166
11
13.4936834
21
3.8364166
0
LINE
8
DEFAULT_255_2_778
10
11.3770667
20
0.3969166
11
13.4937667
21
6.2177166
0
LINE
8
DEFAULT_255_2_778
10
13.4937667
20
6.2177166
11
13.3614667
21
4.6963166
0
LINE
8
DEFAULT_255_2_778
10
13.3614667
20
4.6963166
11
12.5676667
21
5.0271166
0
LINE
8
DEFAULT_255_2_778
10
12.5676667
20
5.0271166
11
13.4937667
21
6.2177166
0
ENDSEC
0
EOF