0
SECTION
2
HEADER
9
$MEASUREMENT
70
1
0
ENDSEC
0
SECTION
2
TABLES
0
TABLE
2
LTYPE
0
LTYPE
72
65
70
64
2
CONTINUOUS
3
______
73
0
40
0
0
ENDTAB
0
TABLE
2
LAYER
0
LAYER
2
DEFAULT_255_1_388
70
0
62
255
6
CONTINUOUS
0
LAYER
2
DEFAULT_255_2_778
70
0
62
255
6
CONTINUOUS
0
ENDTAB
0
ENDSEC
0
SECTION
2
ENTITIES
0
LINE
8
DEFAULT_255_1_388
10
8.2168985
20
-0.5089852
11
8.2168985
21
-1.8309
0
LINE
8
DEFAULT_255_1_388
10
8.2168985
20
-1.8309
11
8.0488355
21
-1.8309
0
LINE
8
DEFAULT_255_1_388
10
8.0488355
20
-1.8309
11
8.0488355
21
-0.716805
0
LINE
8
DEFAULT_255_1_388
10
8.0488355
20
-0.716805
11
7.711806
21
-0.8405934
0
LINE
8
DEFAULT_255_1_388
10
7.711806
20
-0.8405934
11
7.711806
21
-0.6887945
0
LINE
8
DEFAULT_255_1_388
10
7.711806
20
-0.6887945
11
8.1906951
21
-0.5089852
0
LINE
8
DEFAULT_255_1_388
10
8.1906951
20
-0.5089852
11
8.2168985
21
-0.5089852
0
LINE
8
DEFAULT_255_1_388
10
8.5212318
20
13.6021382
11
8.5212318
21
13.4657
0
LINE
8
DEFAULT_255_1_388
10
8.5212318
20
13.4657
11
7.6592313
21
13.4657
0
LINE
8
DEFAULT_255_1_388
10
7.6592313
20
13.4657
11
7.6592313
21
13.5858741
0
LINE
8
DEFAULT_255_1_388
10
7.6592313
20
13.5858741
11
8.1146278
21
14.0918702
0
LINE
8
DEFAULT_255_1_388
10
7.8010909
20
14.3936607
11
7.6339315
21
14.3936607
0
LINE
8
DEFAULT_255_1_388
10
8.2131163
20
13.984346
11
7.8607262
21
13.6021382
0
LINE
8
DEFAULT_255_1_388
10
7.8607262
20
13.6021382
11
8.5212318
21
13.6021382
0
ARC
8
DEFAULT_255_1_388
10
6.5970337
20
15.4338983
40
2.0258655
50
318.5132526
51
320.7829045
0
ARC
8
DEFAULT_255_1_388
10
7.1918294
20
14.9497929
40
1.2589638
50
320.7372878
51
323.9739031
0
ARC
8
DEFAULT_255_1_388
10
7.6327226
20
14.6303554
40
0.7145141
50
323.8962701
51
328.64194
0
ARC
8
DEFAULT_255_1_388
10
7.8629484
20
14.4883545
40
0.4440242
50
328.8294576
51
331.7891185
0
ARC
8
DEFAULT_255_1_388
10
7.9751804
20
14.4304374
40
0.3177517
50
331.4254512
51
352.9365785
0
ARC
8
DEFAULT_255_1_388
10
7.9904804
20
14.427005
40
0.3021496
50
353.2257659
51
0.0166158
0
ARC
8
DEFAULT_255_1_388
10
8.0141564
20
14.4295894
40
0.2784847
50
359.486299
51
15.9343185
0
ARC
8
DEFAULT_255_1_388
10
8.0711831
20
14.4449269
40
0.2194403
50
16.1712913
51
43.5286088
0
ARC
8
DEFAULT_255_1_388
10
8.0798776
20
14.4536191
40
0.2071504
50
43.4417391
51
83.1661095
0
ARC
8
DEFAULT_255_1_388
10
8.0647937
20
14.3707316
40
0.2912888
50
82.160179
51
90.1505708
0
ARC
8
DEFAULT_255_1_388
10
8.0612418
20
14.3103279
40
0.3517025
50
89.5460741
51
102.5418361
0
ARC
8
DEFAULT_255_1_388
10
8.0339138
20
14.4262933
40
0.2325748
50
102.1738499
51
129.206123
0
ARC
8
DEFAULT_255_1_388
10
8.0250592
20
14.4402664
40
0.2161591
50
129.72865
51
135.753947
0
ARC
8
DEFAULT_255_1_388
10
8.0387074
20
14.4293728
40
0.2335433
50
136.1757367
51
166.3673339
0
ARC
8
DEFAULT_255_1_388
10
8.1519762
20
14.3990148
40
0.3507873
50
165.9090694
51
178.8684636
0
ARC
8
DEFAULT_255_1_388
10
8.2495534
20
14.3937263
40
0.4484624
50
178.4391136
51
180.0083808
0
ARC
8
DEFAULT_255_1_388
10
8.0916235
20
14.3981197
40
0.4577138
50
163.2878482
51
180.5581842
0
ARC
8
DEFAULT_255_1_388
10
8.0014276
20
14.4229393
40
0.3641968
50
133.4540601
51
162.947111
0
ARC
8
DEFAULT_255_1_388
10
8.0215158
20
14.4015789
40
0.3935189
50
100.7869829
51
133.4382499
0
ARC
8
DEFAULT_255_1_388
10
8.0606403
20
14.2273399
40
0.5720313
50
89.660664
51
101.3702276
0
ARC
8
DEFAULT_255_1_388
10
8.0681012
20
14.2342263
40
0.5651495
50
78.2172678
51
90.412935
0
ARC
8
DEFAULT_255_1_388
10
8.1080478
20
14.4169511
40
0.378122
50
55.9269121
51
78.4888449
0
ARC
8
DEFAULT_255_1_388
10
8.1301193
20
14.4550187
40
0.3342379
50
47.929771
51
55.4049217
0
ARC
8
DEFAULT_255_1_388
10
8.1415723
20
14.4666618
40
0.3179217
50
4.334829
51
48.0560205
0
ARC
8
DEFAULT_255_1_388
10
8.0183525
20
14.4475487
40
0.442341
50
359.9251713
51
5.5971671
0
ARC
8
DEFAULT_255_1_388
10
8.066568
20
14.4538728
40
0.3941854
50
337.8914027
51
358.9967534
0
ARC
8
DEFAULT_255_1_388
10
7.761325
20
14.5716295
40
0.7213271
50
326.9132501
51
338.3508308
0
ARC
8
DEFAULT_255_1_388
10
7.3129362
20
14.8590105
40
1.2538973
50
319.6471833
51
327.0959558
0
ARC
8
DEFAULT_255_1_388
10
6.881602
20
15.214805
40
1.8129975
50
317.2588228
51
319.9045804
0
LINE
8
DEFAULT_255_1_388
10
4.1981901
20
6.7097775
11
4.1981901
21
6.8462157
0
LINE
8
DEFAULT_255_1_388
10
4.1981901
20
6.8462157
11
4.3237856
21
6.8462157
0
LINE
8
DEFAULT_255_1_388
10
4.1096408
20
7.0775282
11
3.9424814
21
7.0775282
0
LINE
8
DEFAULT_255_1_388
10
3.9307351
20
6.4540688
11
4.098798
21
6.4540688
0
LINE
8
DEFAULT_255_1_388
10
4.3237856
20
6.7097775
11
4.1981901
21
6.7097775
0
ARC
8
DEFAULT_255_1_388
10
4.3205082
20
7.2278922
40
0.3816905
50
270.491971
51
281.8953028
0
ARC
8
DEFAULT_255_1_388
10
4.3476509
20
7.1039199
40
0.2547877
50
281.6690378
51
301.2943765
0
ARC
8
DEFAULT_255_1_388
10
4.3667961
20
7.0688926
40
0.2149197
50
301.7834992
51
311.754567
0
ARC
8
DEFAULT_255_1_388
10
4.3771002
20
7.057465
40
0.1995326
50
311.7325027
51
354.2803031
0
ARC
8
DEFAULT_255_1_388
10
4.2953418
20
7.071528
40
0.2823461
50
353.0941646
51
0.1174696
0
ARC
8
DEFAULT_255_1_388
10
4.2434976
20
7.0768874
40
0.3342238
50
359.1804452
51
15.0452323
0
ARC
8
DEFAULT_255_1_388
10
4.3949034
20
7.1210546
40
0.1765747
50
13.957816
51
77.6713812
0
ARC
8
DEFAULT_255_1_388
10
4.351427
20
6.9652464
40
0.3381982
50
76.111571
51
90.7028736
0
ARC
8
DEFAULT_255_1_388
10
4.3447682
20
6.996025
40
0.3074046
50
89.5321574
51
103.5319393
0
ARC
8
DEFAULT_255_1_388
10
4.3222066
20
7.0859443
40
0.2147041
50
103.2930114
51
133.5619756
0
ARC
8
DEFAULT_255_1_388
10
4.3172007
20
7.0926351
40
0.2064084
50
133.8349761
51
173.5343225
0
ARC
8
DEFAULT_255_1_388
10
4.3985665
20
7.0782144
40
0.2889266
50
172.5097183
51
180.1360699
0
ARC
8
DEFAULT_255_1_388
10
4.2915429
20
7.082088
40
0.3490913
50
155.3483706
51
180.7484035
0
ARC
8
DEFAULT_255_1_388
10
4.2860404
20
7.0788519
40
0.3454798
50
131.5745177
51
154.4799474
0
ARC
8
DEFAULT_255_1_388
10
4.3212687
20
7.0432422
40
0.3955058
50
96.9874487
51
131.9690874
0
ARC
8
DEFAULT_255_1_388
10
4.345958
20
6.9031407
40
0.537622
50
89.8592909
51
97.7827481
0
ARC
8
DEFAULT_255_1_388
10
4.3513689
20
6.873636
40
0.5671399
50
78.3654493
51
90.4132586
0
ARC
8
DEFAULT_255_1_388
10
4.391633
20
7.0602918
40
0.3762034
50
56.6229818
51
78.6387103
0
ARC
8
DEFAULT_255_1_388
10
4.4158159
20
7.1025846
40
0.3275964
50
47.0254604
51
56.085558
0
ARC
8
DEFAULT_255_1_388
10
4.418041
20
7.1070189
40
0.3228382
50
10.9207523
51
46.777927
0
ARC
8
DEFAULT_255_1_388
10
4.2646004
20
7.0715401
40
0.4802559
50
359.6364235
51
11.6087615
0
ARC
8
DEFAULT_255_1_388
10
4.471017
20
7.0698404
40
0.273833
50
332.3549969
51
359.7179765
0
ARC
8
DEFAULT_255_1_388
10
4.397857
20
7.1045285
40
0.3547505
50
325.2332381
51
332.8746682
0
ARC
8
DEFAULT_255_1_388
10
4.4150153
20
7.0925763
40
0.3338396
50
292.9803892
51
325.2391113
0
ARC
8
DEFAULT_255_1_388
10
4.3839349
20
7.1530679
40
0.4016959
50
292.542178
51
293.6931461
0
ARC
8
DEFAULT_255_1_388
10
4.4282921
20
6.4265036
40
0.372079
50
57.643292
51
72.8626085
0
ARC
8
DEFAULT_255_1_388
10
4.4681755
20
6.4911273
40
0.2961455
50
36.7246661
51
57.4701329
0
ARC
8
DEFAULT_255_1_388
10
4.4668912
20
6.492547
40
0.2963321
50
8.054535
51
36.3561529
0
ARC
8
DEFAULT_255_1_388
10
4.3698585
20
6.4751073
40
0.3948682
50
359.8316595
51
8.5873361
0
ARC
8
DEFAULT_255_1_388
10
4.3276059
20
6.469697
40
0.4371398
50
343.9831631
51
0.557075
0
ARC
8
DEFAULT_255_1_388
10
4.4273108
20
6.4423963
40
0.3337749
50
311.6358204
51
343.7652116
0
ARC
8
DEFAULT_255_1_388
10
4.3847362
20
6.4903955
40
0.3979351
50
279.7829743
51
311.625622
0
ARC
8
DEFAULT_255_1_388
10
4.3508497
20
6.6520642
40
0.5630417
50
269.7285092
51
280.3857694
0
ARC
8
DEFAULT_255_1_388
10
4.343881
20
6.6474241
40
0.5584119
50
256.6827433
51
270.4412869
0
ARC
8
DEFAULT_255_1_388
10
4.3057797
20
6.4916698
40
0.3980715
50
229.4223821
51
256.8554507
0
ARC
8
DEFAULT_255_1_388
10
4.259135
20
6.4391683
40
0.3278564
50
181.8183354
51
229.6455015
0
ARC
8
DEFAULT_255_1_388
10
4.376096
20
6.4538825
40
0.4453611
50
179.9760419
51
183.2330638
0
ARC
8
DEFAULT_255_1_388
10
4.3567512
20
6.4515781
40
0.2579652
50
179.4467996
51
196.2871626
0
ARC
8
DEFAULT_255_1_388
10
4.3018966
20
6.4365709
40
0.2011057
50
196.5661293
51
227.7059371
0
ARC
8
DEFAULT_255_1_388
10
4.3203573
20
6.4572155
40
0.2287994
50
227.7653015
51
257.8763321
0
ARC
8
DEFAULT_255_1_388
10
4.3456656
20
6.5632961
40
0.3378385
50
257.4583525
51
270.4267406
0
ARC
8
DEFAULT_255_1_388
10
4.3507906
20
6.595923
40
0.3704652
50
269.5965319
51
280.8788143
0
ARC
8
DEFAULT_255_1_388
10
4.3766134
20
6.4669529
40
0.2389415
50
280.6347277
51
299.8594068
0
ARC
8
DEFAULT_255_1_388
10
4.3980903
20
6.4261736
40
0.19289
50
300.3575552
51
314.5515667
0
ARC
8
DEFAULT_255_1_388
10
4.3887579
20
6.4330025
40
0.204312
50
315.0730962
51
345.0429362
0
ARC
8
DEFAULT_255_1_388
10
4.2849087
20
6.4632539
40
0.31246
50
344.598526
51
357.9270698
0
ARC
8
DEFAULT_255_1_388
10
4.1839391
20
6.4701705
40
0.4136265
50
357.4755098
51
0.0224936
0
ARC
8
DEFAULT_255_1_388
10
4.2992269
20
6.4729099
40
0.2983498
50
359.5051035
51
13.4236939
0
ARC
8
DEFAULT_255_1_388
10
4.3967359
20
6.4978637
40
0.1977186
50
12.9497905
51
48.7550905
0
ARC
8
DEFAULT_255_1_388
10
4.3762281
20
6.4698373
40
0.2323321
50
49.509109
51
72.1832965
0
ARC
8
DEFAULT_255_1_388
10
4.3359749
20
6.3503632
40
0.358397
50
71.9008458
51
84.3555134
0
ARC
8
DEFAULT_255_1_388
10
4.3178144
20
6.1971712
40
0.512641
50
84.019632
51
89.3326067
0
LINE
8
DEFAULT_255_2_778
10
13.3614667
20
2.5135499
11
8.0697667
21
2.5135499
0
LINE
8
DEFAULT_255_2_778
10
8.0697667
20
2.5135499
11
8.0697667
21
10.4510499
0
LINE
8
DEFAULT_255_2_778
10
8.0697667
20
10.4510499
11
13.3614667
21
10.4510499
0
LINE
8
DEFAULT_255_2_778
10
13.3614667
20
10.4510499
11
13.3614667
21
2.5135499
0
LINE
8
DEFAULT_255_2_778
10
10.7156
20
2.5135333
11
10.7156
21
-2.7781667
0
LINE
8
DEFAULT_255_2_778
10
10.7156
20
15.7426333
11
10.7156
21
10.4509333
0
LINE
8
DEFAULT_255_2_778
10
5.4238834
20
5.1593
11
2.7780834
21
5.1593
0
LINE
8
DEFAULT_255_2_778
10
6.7468417
20
5.1593
11
8.0697417
21
5.1593
0
LINE
8
DEFAULT_255_2_778
10
8.0697834
20
2.5135583
11
9.3926834
21
1.1906583
0
LINE
8
DEFAULT_255_2_778
10
9.3926834
20
1.1906583
11
10.7155834
21
2.5135583
0
LINE
8
DEFAULT_255_2_778
10
10.7155834
20
2.5135583
11
8.0697834
21
2.5135583
0
LINE
8
DEFAULT_255_2_778
10
5.4239417
20
3.8364166
11
6.7468417
21
5.1593166
0
LINE
8
DEFAULT_255_2_778
10
6.7468417
20
5.1593166
11
5.4239417
21
6.4822166
0
LINE
8
DEFAULT_255_2_778
10
5.4239417
20
6.4822166
11
5.4239417
21
3.8364166
0
LINE
8
DEFAULT_255_2_778
10
13.3614834
20
3.8364166
11
13.5818834
21
5.1593166
0
LINE
8
DEFAULT_255_2_778
10
13.5818834
20
5.1593166
11
14.0229834
21
2.5135166
0
LINE
8
DEFAULT_255_2_778
10
14.0229834
20
2.5135166
11
14.4639834
21
5.1593166
0
LINE
8
DEFAULT_255_2_778
10
14.4639834
20
5.1593166
11
14.9047834
21
2.5135166
0
LINE
8
DEFAULT_255_2_778
10
14.9047834
20
2.5135166
11
15.3458834
21
5.1593166
0
LINE
8
DEFAULT_255_2_778
10
15.3458834
20
5.1593166
11
15.7868834
21
2.5135166
0
LINE
8
DEFAULT_255_2_778
10
15.7868834
20
2.5135166
11
16.0072834
21
3.8364166
0
LINE
8
DEFAULT_255_2_778
10
13.8906667
20
0.3969166
11
16.0073667
21
6.2177166
0
LINE
8
DEFAULT_255_2_778
10
16.0073667
20
6.2177166
11
15.8750667
21
4.6963166
0
LINE
8
DEFAULT_255_2_778
10
15.8750667
20
4.6963166
11
15.0812667
21
5.0271166
0
LINE
8
DEFAULT_255_2_778
10
15.0812667
20
5.0271166
11
16.0073667
21
6.2177166
0
LINE
8
DEFAULT_255_2_778
10
9.3927333
20
10.4510416
11
9.9218333
21
8.5989416
0
LINE
8
DEFAULT_255_2_778
10
9.9218333
20
8.5989416
11
8.8635333
21
8.5989416
0
LINE
8
DEFAULT_255_2_778
10
8.8635333
20
8.5989416
11
9.3927333
21
10.4510416
0
LINE
8
DEFAULT_255_2_778
10
9.3927333
20
2.5135416
11
8.8635333
21
4.3656416
0
LINE
8
DEFAULT_255_2_778
10
8.8635333
20
4.3656416
11
9.9218333
21
4.3656416
0
LINE
8
DEFAULT_255_2_778
10
9.9218333
20
4.3656416
11
9.3927333
21
2.5135416
0
LINE
8
DEFAULT_255_2_778
10
9.3927
20
10.4510499
11
9.3927
21
2.5135499
0
ENDSEC
0
EOF