0
SECTION
2
HEADER
9
$MEASUREMENT
70
1
0
ENDSEC
0
SECTION
2
TABLES
0
TABLE
2
LTYPE
0
LTYPE
72
65
70
64
2
CONTINUOUS
3
______
73
0
40
0
0
ENDTAB
0
TABLE
2
LAYER
0
LAYER
2
DEFAULT_255_2_778
70
0
62
255
6
CONTINUOUS
0
ENDTAB
0
ENDSEC
0
SECTION
2
ENTITIES
0
LINE
8
DEFAULT_255_2_778
10
2.7781335
20
2.5135333
11
13.3614335
21
2.5135333
0
LINE
8
DEFAULT_255_2_778
10
13.3614335
20
2.5135333
11
13.3614335
21
-2.7781667
0
LINE
8
DEFAULT_255_2_778
10
13.3614335
20
-2.7781667
11
2.7781335
21
-2.7781667
0
LINE
8
DEFAULT_255_2_778
10
2.7781335
20
-2.7781667
11
2.7781335
21
2.5135333
0
ARC
8
DEFAULT_255_2_778
10
10.5583927
20
-0.1378719
40
1.4765876
50
151.2343384
51
180.1217037
0
ARC
8
DEFAULT_255_2_778
10
10.5565644
20
-0.1374727
40
1.4747928
50
98.3838395
51
151.2137517
0
ARC
8
DEFAULT_255_2_778
10
10.5597703
20
-0.1651676
40
1.5026594
50
89.9794828
51
98.3508054
0
ARC
8
DEFAULT_255_2_778
10
10.5634448
20
-0.1390927
40
1.4765876
50
61.2343384
51
90.1217037
0
ARC
8
DEFAULT_255_2_778
10
10.563844
20
-0.1372644
40
1.4747928
50
8.3838395
51
61.2137517
0
ARC
8
DEFAULT_255_2_778
10
10.5361492
20
-0.1404703
40
1.5026594
50
359.9794828
51
8.3508054
0
ARC
8
DEFAULT_255_2_778
10
10.5622241
20
-0.1441448
40
1.4765876
50
331.2343384
51
0.1217037
0
ARC
8
DEFAULT_255_2_778
10
10.5640524
20
-0.144544
40
1.4747928
50
278.3838395
51
331.2137517
0
ARC
8
DEFAULT_255_2_778
10
10.5608465
20
-0.1168492
40
1.5026594
50
269.9794828
51
278.3508054
0
ARC
8
DEFAULT_255_2_778
10
10.5571719
20
-0.1429241
40
1.4765876
50
241.2343384
51
270.1217037
0
ARC
8
DEFAULT_255_2_778
10
10.5567727
20
-0.1447524
40
1.4747928
50
188.3838395
51
241.2137517
0
ARC
8
DEFAULT_255_2_778
10
10.5844676
20
-0.1415465
40
1.5026594
50
179.9794828
51
188.3508054
0
LINE
8
DEFAULT_255_2_778
10
9.0818084
20
-0.1410084
11
9.0818084
21
-0.1410084
0
LINE
8
DEFAULT_255_2_778
10
9.5127792
20
0.9062208
11
11.6071792
21
-1.1881792
0
LINE
8
DEFAULT_255_2_778
10
11.6071792
20
0.9062208
11
9.5127792
21
-1.1881792
0
LINE
8
DEFAULT_255_2_778
10
7.0115
20
-1.7198
11
3.8365
21
1.4552
0
LINE
8
DEFAULT_255_2_778
10
3.8365
20
1.4552
11
4.8948
21
-0.3969
0
LINE
8
DEFAULT_255_2_778
10
4.8948
20
-0.3969
11
5.6886
21
0.3969
0
LINE
8
DEFAULT_255_2_778
10
5.6886
20
0.3969
11
3.8365
21
1.4552
0
ENDSEC
0
EOF