0
SECTION
2
HEADER
9
$MEASUREMENT
70
1
0
ENDSEC
0
SECTION
2
TABLES
0
TABLE
2
LTYPE
0
LTYPE
72
65
70
64
2
CONTINUOUS
3
______
73
0
40
0
0
ENDTAB
0
TABLE
2
LAYER
0
LAYER
2
DEFAULT_255_1_234
70
0
62
255
6
CONTINUOUS
0
LAYER
2
DEFAULT_255_2_778
70
0
62
255
6
CONTINUOUS
0
ENDTAB
0
ENDSEC
0
SECTION
2
ENTITIES
0
LINE
8
DEFAULT_255_1_234
10
4.6130137
20
1.9790433
11
4.6130137
21
0.804
0
LINE
8
DEFAULT_255_1_234
10
4.6130137
20
0.804
11
4.4636234
21
0.804
0
LINE
8
DEFAULT_255_1_234
10
4.4636234
20
0.804
11
4.4636234
21
1.7943133
0
LINE
8
DEFAULT_255_1_234
10
4.4636234
20
1.7943133
11
4.1640396
21
1.6842785
0
LINE
8
DEFAULT_255_1_234
10
4.1640396
20
1.6842785
11
4.1640396
21
1.8192117
0
LINE
8
DEFAULT_255_1_234
10
4.1640396
20
1.8192117
11
4.5897217
21
1.9790433
0
LINE
8
DEFAULT_255_1_234
10
4.5897217
20
1.9790433
11
4.6130137
21
1.9790433
0
LINE
8
DEFAULT_255_1_234
10
24.4799119
20
0.9252792
11
24.4799119
21
0.804
0
LINE
8
DEFAULT_255_1_234
10
24.4799119
20
0.804
11
23.713684
21
0.804
0
LINE
8
DEFAULT_255_1_234
10
23.713684
20
0.804
11
23.713684
21
0.9108221
0
LINE
8
DEFAULT_255_1_234
10
23.713684
20
0.9108221
11
24.1184836
21
1.3605995
0
LINE
8
DEFAULT_255_1_234
10
23.8397823
20
1.6288595
11
23.6911952
21
1.6288595
0
LINE
8
DEFAULT_255_1_234
10
24.2060296
20
1.2650218
11
23.8927918
21
0.9252792
0
LINE
8
DEFAULT_255_1_234
10
23.8927918
20
0.9252792
11
24.4799119
21
0.9252792
0
ARC
8
DEFAULT_255_1_234
10
22.769467
20
2.5535527
40
1.8008286
50
318.5132453
51
320.7828378
0
ARC
8
DEFAULT_255_1_234
10
23.2981644
20
2.1232426
40
1.1191493
50
320.7372736
51
323.9737074
0
ARC
8
DEFAULT_255_1_234
10
23.6901501
20
1.8392361
40
0.6350923
50
323.8961724
51
328.6421089
0
ARC
8
DEFAULT_255_1_234
10
23.8948096
20
1.7130031
40
0.3946393
50
328.8299013
51
331.789948
0
ARC
8
DEFAULT_255_1_234
10
23.9945274
20
1.6615509
40
0.2824501
50
331.4255242
51
352.9364833
0
ARC
8
DEFAULT_255_1_234
10
24.0081775
20
1.6584976
40
0.2685315
50
353.2248685
51
0.0169286
0
ARC
8
DEFAULT_255_1_234
10
24.0291652
20
1.660795
40
0.2475536
50
359.4866256
51
15.9339782
0
ARC
8
DEFAULT_255_1_234
10
24.0798637
20
1.6744286
40
0.1950618
50
16.1714718
51
43.5284424
0
ARC
8
DEFAULT_255_1_234
10
24.0875946
20
1.6821573
40
0.184134
50
43.4415429
51
83.1661404
0
ARC
8
DEFAULT_255_1_234
10
24.0741864
20
1.6084771
40
0.258926
50
82.160215
51
90.1505798
0
ARC
8
DEFAULT_255_1_234
10
24.0710291
20
1.5547865
40
0.3126255
50
89.5460705
51
102.5418777
0
ARC
8
DEFAULT_255_1_234
10
24.0467377
20
1.6578665
40
0.2067346
50
102.1739365
51
129.2061916
0
ARC
8
DEFAULT_255_1_234
10
24.0388449
20
1.6703094
40
0.1921118
50
129.7279328
51
135.7542026
0
ARC
8
DEFAULT_255_1_234
10
24.0509977
20
1.6606045
40
0.2075944
50
136.175737
51
166.3674722
0
ARC
8
DEFAULT_255_1_234
10
24.1516896
20
1.6336182
40
0.3118201
50
165.9092917
51
178.8683903
0
ARC
8
DEFAULT_255_1_234
10
24.2381757
20
1.6289179
40
0.3983935
50
178.438168
51
180.0083905
0
ARC
8
DEFAULT_255_1_234
10
24.0980359
20
1.6328231
40
0.4068601
50
163.2878735
51
180.5581814
0
ARC
8
DEFAULT_255_1_234
10
24.0178621
20
1.654884
40
0.3237344
50
133.454115
51
162.9470031
0
ARC
8
DEFAULT_255_1_234
10
24.0357162
20
1.6359
40
0.349795
50
100.7869394
51
133.4384016
0
ARC
8
DEFAULT_255_1_234
10
24.0704934
20
1.4810319
40
0.5084616
50
89.6605301
51
101.3704185
0
ARC
8
DEFAULT_255_1_234
10
24.0771273
20
1.4871496
40
0.502348
50
78.2171172
51
90.4130393
0
ARC
8
DEFAULT_255_1_234
10
24.1126351
20
1.6495637
40
0.3361092
50
55.9268222
51
78.4888551
0
ARC
8
DEFAULT_255_1_234
10
24.1322791
20
1.6834324
40
0.2970617
50
47.9292255
51
55.4054003
0
ARC
8
DEFAULT_255_1_234
10
24.1424352
20
1.6937502
40
0.2825983
50
4.3347696
51
48.0560701
0
ARC
8
DEFAULT_255_1_234
10
24.0328745
20
1.6767601
40
0.393225
50
359.925209
51
5.5967654
0
ARC
8
DEFAULT_255_1_234
10
24.0757637
20
1.6823816
40
0.3503892
50
337.8914096
51
358.9967724
0
ARC
8
DEFAULT_255_1_234
10
23.8044049
20
1.7870706
40
0.6412172
50
326.9135351
51
338.3505194
0
ARC
8
DEFAULT_255_1_234
10
23.4058353
20
2.0425284
40
1.1146189
50
319.6472867
51
327.095818
0
ARC
8
DEFAULT_255_1_234
10
23.0225356
20
2.3587
40
1.6114559
50
317.2586784
51
319.9046139
0
LINE
8
DEFAULT_255_2_778
10
8.2025169
20
2.5135333
11
21.4317169
21
2.5135333
0
LINE
8
DEFAULT_255_2_778
10
21.4317169
20
2.5135333
11
21.4317169
21
-2.7781667
0
LINE
8
DEFAULT_255_2_778
10
21.4317169
20
-2.7781667
11
8.2025169
21
-2.7781667
0
LINE
8
DEFAULT_255_2_778
10
8.2025169
20
-2.7781667
11
8.2025169
21
2.5135333
0
LINE
8
DEFAULT_255_2_778
10
2.9107667
20
-0.1323
11
8.2024667
21
-0.1323
0
LINE
8
DEFAULT_255_2_778
10
26.7233667
20
-0.1323
11
21.4316667
21
-0.1323
0
LINE
8
DEFAULT_255_2_778
10
10.5837
20
2.5135333
11
10.5837
21
-2.7781667
0
ARC
8
DEFAULT_255_2_778
10
14.8192446
20
-0.1288812
40
1.9865225
50
156.4840822
51
180.0993289
0
ARC
8
DEFAULT_255_2_778
10
14.8124668
20
-0.1280498
40
1.9799769
50
100.1815477
51
156.4278853
0
ARC
8
DEFAULT_255_2_778
10
14.8161181
20
-0.1596915
40
2.0117668
50
89.9713221
51
100.1246033
0
ARC
8
DEFAULT_255_2_778
10
14.8205605
20
-0.1342015
40
1.9862795
50
66.4826249
51
90.0990973
0
ARC
8
DEFAULT_255_2_778
10
14.8212751
20
-0.1276649
40
1.9800016
50
10.1813643
51
66.4261105
0
ARC
8
DEFAULT_255_2_778
10
14.7896582
20
-0.1313159
40
2.0117669
50
359.9712589
51
10.1245387
0
ARC
8
DEFAULT_255_2_778
10
14.8151179
20
-0.1357582
40
1.9863101
50
336.4829384
51
0.0990315
0
ARC
8
DEFAULT_255_2_778
10
14.8217015
20
-0.1365143
40
1.9799725
50
280.1831072
51
336.4269808
0
ARC
8
DEFAULT_255_2_778
10
14.8181326
20
-0.105172
40
2.0114531
50
269.9713014
51
280.1253277
0
ARC
8
DEFAULT_255_2_778
10
14.8136834
20
-0.1300749
40
1.9865532
50
246.4843956
51
270.0992632
0
ARC
8
DEFAULT_255_2_778
10
14.8128106
20
-0.1368996
40
1.9799478
50
190.1832906
51
246.4287556
0
ARC
8
DEFAULT_255_2_778
10
14.8441778
20
-0.1333303
40
2.0114531
50
179.9713646
51
190.1253923
0
LINE
8
DEFAULT_255_2_778
10
12.8327251
20
-0.1323251
11
12.8327251
21
-0.1323251
0
LINE
8
DEFAULT_255_2_778
10
18.7858
20
2.5135583
11
18.7858
21
1.1906583
0
LINE
8
DEFAULT_255_2_778
10
16.1399834
20
-1.4551834
11
13.4941834
21
1.1906166
0
LINE
8
DEFAULT_255_2_778
10
13.4941834
20
1.1906166
11
14.3759834
21
-0.3526834
0
LINE
8
DEFAULT_255_2_778
10
14.3759834
20
-0.3526834
11
15.0374834
21
0.3087166
0
LINE
8
DEFAULT_255_2_778
10
15.0374834
20
0.3087166
11
13.4941834
21
1.1906166
0
ENDSEC
0
EOF