0
SECTION
2
HEADER
9
$MEASUREMENT
70
1
0
ENDSEC
0
SECTION
2
TABLES
0
TABLE
2
LTYPE
0
LTYPE
72
65
70
64
2
CONTINUOUS
3
______
73
0
40
0
0
ENDTAB
0
TABLE
2
LAYER
0
LAYER
2
DEFAULT_255_2_778
70
0
62
255
6
CONTINUOUS
0
ENDTAB
0
ENDSEC
0
SECTION
2
ENTITIES
0
ARC
8
DEFAULT_255_2_778
10
8.5396989
20
4.9523652
40
2.3078131
50
80.5714632
51
88.5278332
0
ARC
8
DEFAULT_255_2_778
10
8.6968885
20
5.8736909
40
1.3731896
50
68.6488571
51
80.7440781
0
ARC
8
DEFAULT_255_2_778
10
8.913156
20
6.4103754
40
0.7946232
50
46.3798958
51
69.083415
0
ARC
8
DEFAULT_255_2_778
10
8.9965166
20
6.5213446
40
0.656981
50
5.034436
51
44.9662844
0
ARC
8
DEFAULT_255_2_778
10
8.6755595
20
6.4677055
40
0.9817322
50
359.8839233
51
6.5092193
0
ARC
8
DEFAULT_255_2_778
10
8.836138
20
6.4521689
40
0.8212634
50
339.3869178
51
0.9451984
0
ARC
8
DEFAULT_255_2_778
10
8.9984079
20
6.4066309
40
0.6535114
50
296.0111297
51
338.1150776
0
ARC
8
DEFAULT_255_2_778
10
8.7643488
20
6.8410844
40
1.1467757
50
282.4883681
51
297.0015953
0
ARC
8
DEFAULT_255_2_778
10
8.5819645
20
7.6253362
40
1.9519294
50
273.8160221
51
282.7373284
0
ARC
8
DEFAULT_255_2_778
10
8.5154673
20
8.3904964
40
2.7198625
50
271.7597332
51
274.140985
0
LINE
8
DEFAULT_255_2_778
10
8.5989897
20
5.6719165
11
8.5989897
21
1.9678165
0
LINE
8
DEFAULT_255_2_778
10
8.5989897
20
1.9678165
11
11.8400897
21
1.9678165
0
LINE
8
DEFAULT_255_2_778
10
5.0270897
20
10.9636165
11
8.5989897
21
10.9636165
0
LINE
8
DEFAULT_255_2_778
10
8.5989897
20
10.9636165
11
8.5989897
21
7.2594165
0
LINE
8
DEFAULT_255_2_778
10
5.1594
20
10.3021583
11
5.1594
21
11.6250583
0
LINE
8
DEFAULT_255_2_778
10
5.1593793
20
10.9636457
11
4.4978793
21
10.9636457
0
LINE
8
DEFAULT_255_2_778
10
11.7738793
20
1.3063457
11
11.7738793
21
2.6292457
0
LINE
8
DEFAULT_255_2_778
10
12.4354708
20
1.9678
11
11.7739708
21
1.9678
0
ARC
8
DEFAULT_255_2_778
10
7.9166697
20
-1.2005922
40
0.8146127
50
344.6721427
51
0.8932479
0
ARC
8
DEFAULT_255_2_778
10
8.2938907
20
-1.3088578
40
0.4222168
50
310.105826
51
345.3098338
0
ARC
8
DEFAULT_255_2_778
10
8.3159734
20
-1.4250572
40
0.3243372
50
285.8284028
51
320.4010681
0
ARC
8
DEFAULT_255_2_778
10
8.1970525
20
-1.059189
40
0.7089199
50
272.6363799
51
287.0099839
0
ARC
8
DEFAULT_255_2_778
10
8.1615293
20
-0.6184596
40
1.1509173
50
269.933307
51
273.3937571
0
ARC
8
DEFAULT_255_2_778
10
8.16179
20
-0.3094646
40
1.4599123
50
266.8482221
51
269.9371916
0
ARC
8
DEFAULT_255_2_778
10
8.1713534
20
-0.1044613
40
1.6651322
50
266.5028914
51
266.9074867
0
ARC
8
DEFAULT_255_2_778
10
7.9606044
20
-0.8768503
40
0.8920352
50
270.0297613
51
273.7330767
0
ARC
8
DEFAULT_255_2_778
10
7.9474254
20
-1.0973369
40
0.6716871
50
232.7206497
51
271.1637898
0
ARC
8
DEFAULT_255_2_778
10
7.9558992
20
-1.2912083
40
0.537108
50
190.5509985
51
219.3538672
0
ARC
8
DEFAULT_255_2_778
10
8.3827031
20
-1.1951542
40
0.9744201
50
179.9434703
51
191.5081672
0
ARC
8
DEFAULT_255_2_778
10
8.4673337
20
-1.2429495
40
0.7832408
50
175.617081
51
179.9121628
0
ARC
8
DEFAULT_255_2_778
10
8.1480832
20
-1.2523504
40
0.4641105
50
178.6910808
51
199.7342448
0
ARC
8
DEFAULT_255_2_778
10
7.9817293
20
-1.3057235
40
0.2895657
50
200.9081343
51
213.0378859
0
ARC
8
DEFAULT_255_2_778
10
7.9661618
20
-1.2237126
40
0.3303824
50
226.5578
51
259.7980895
0
ARC
8
DEFAULT_255_2_778
10
8.060857
20
-0.8126897
40
0.751956
50
258.2436069
51
270.6801678
0
ARC
8
DEFAULT_255_2_778
10
8.0820079
20
-0.8610458
40
0.7036533
50
269.0045558
51
284.4626823
0
ARC
8
DEFAULT_255_2_778
10
8.1828064
20
-1.2379999
40
0.3134892
50
283.8302626
51
313.9769226
0
ARC
8
DEFAULT_255_2_778
10
8.0406834
20
-1.243077
40
0.4219991
50
328.4965189
51
354.52536
0
ARC
8
DEFAULT_255_2_778
10
7.6733384
20
-1.1873269
40
0.793251
50
353.0481642
51
0.226368
0
ARC
8
DEFAULT_255_2_778
10
9.5618403
20
-0.9817991
40
0.9383903
50
76.8146267
51
90.7667157
0
ARC
8
DEFAULT_255_2_778
10
9.67165
20
-0.5295186
40
0.4730001
50
51.8421971
51
77.2687009
0
ARC
8
DEFAULT_255_2_778
10
9.7134927
20
-0.4525576
40
0.3869104
50
2.9742319
51
49.6726251
0
ARC
8
DEFAULT_255_2_778
10
9.4571633
20
-0.4936324
40
0.6456211
50
359.9058931
51
5.4349528
0
ARC
8
DEFAULT_255_2_778
10
9.7592136
20
-0.4999129
40
0.3436095
50
323.4599304
51
0.8704701
0
ARC
8
DEFAULT_255_2_778
10
9.6858757
20
-0.4404169
40
0.4379747
50
292.2456459
51
322.9186796
0
ARC
8
DEFAULT_255_2_778
10
9.7531264
20
-1.2270256
40
0.3937664
50
36.7377813
51
75.5051391
0
ARC
8
DEFAULT_255_2_778
10
9.729008
20
-1.2375019
40
0.4194042
50
358.5803245
51
35.9138398
0
ARC
8
DEFAULT_255_2_778
10
9.6562494
20
-1.2622909
40
0.4922446
50
329.4345348
51
1.6761254
0
ARC
8
DEFAULT_255_2_778
10
9.723173
20
-1.2902224
40
0.4205346
50
311.2921786
51
328.0744435
0
ARC
8
DEFAULT_255_2_778
10
9.6339774
20
-1.2653842
40
0.5006235
50
274.5041162
51
317.0962829
0
ARC
8
DEFAULT_255_2_778
10
9.5848764
20
-0.9745854
40
0.7948092
50
269.8779563
51
276.386851
0
ARC
8
DEFAULT_255_2_778
10
9.5997874
20
-1.2906813
40
0.2964587
50
267.66004
51
322.0261601
0
ARC
8
DEFAULT_255_2_778
10
9.6396766
20
-1.2653542
40
0.2841063
50
313.0128991
51
3.0388609
0
ARC
8
DEFAULT_255_2_778
10
9.6518944
20
-1.2365303
40
0.2718377
50
357.0980113
51
36.4399141
0
ARC
8
DEFAULT_255_2_778
10
9.6696812
20
-1.2495405
40
0.2660887
50
40.97325
51
81.4748745
0
ARC
8
DEFAULT_255_2_778
10
9.5964552
20
-1.5728155
40
0.5971497
50
79.1240894
51
90.5442135
0
ARC
8
DEFAULT_255_2_778
10
9.5657778
20
-0.5374081
40
0.272996
50
268.3639019
51
325.4342507
0
ARC
8
DEFAULT_255_2_778
10
9.6333279
20
-0.5040578
40
0.2452788
50
309.8760897
51
2.4453079
0
ARC
8
DEFAULT_255_2_778
10
9.5971865
20
-0.4806228
40
0.2814959
50
357.3591408
51
31.1321871
0
ARC
8
DEFAULT_255_2_778
10
9.6814733
20
-0.4390588
40
0.1880295
50
33.5705529
51
52.0975056
0
ARC
8
DEFAULT_255_2_778
10
9.6136917
20
-0.547955
40
0.3158792
50
54.5312461
51
84.1336301
0
ARC
8
DEFAULT_255_2_778
10
9.5531249
20
-0.9096519
40
0.6822698
50
82.178155
51
90.3226064
0
LINE
8
DEFAULT_255_2_778
10
7.1436834
20
7.1272072
11
7.1436834
21
6.9555072
0
LINE
8
DEFAULT_255_2_778
10
7.1436834
20
6.9555072
11
6.5938834
21
6.9555072
0
LINE
8
DEFAULT_255_2_778
10
6.5938834
20
6.9555072
11
6.5938834
21
5.5458072
0
LINE
8
DEFAULT_255_2_778
10
6.5938834
20
5.5458072
11
6.3694834
21
5.5458072
0
LINE
8
DEFAULT_255_2_778
10
6.3694834
20
5.5458072
11
6.3694834
21
6.9555072
0
LINE
8
DEFAULT_255_2_778
10
6.3694834
20
6.9555072
11
5.8207834
21
6.9555072
0
LINE
8
DEFAULT_255_2_778
10
5.8207834
20
6.9555072
11
5.8207834
21
7.1272072
0
LINE
8
DEFAULT_255_2_778
10
5.8207834
20
7.1272072
11
7.1436834
21
7.1272072
0
LINE
8
DEFAULT_255_2_778
10
7.1436834
20
7.1272072
11
7.1436834
21
7.1272072
0
LINE
8
DEFAULT_255_2_778
10
7.1299834
20
-0.0164928
11
7.1436834
21
-0.2810928
0
LINE
8
DEFAULT_255_2_778
10
7.1436834
20
-0.2810928
11
6.6144834
21
-0.2810928
0
LINE
8
DEFAULT_255_2_778
10
6.6144834
20
-0.2810928
11
6.6144834
21
-1.7693928
0
LINE
8
DEFAULT_255_2_778
10
6.6144834
20
-1.7693928
11
6.3499834
21
-1.7693928
0
LINE
8
DEFAULT_255_2_778
10
6.3499834
20
-1.7693928
11
6.3499834
21
-0.2810928
0
LINE
8
DEFAULT_255_2_778
10
6.3499834
20
-0.2810928
11
5.8207834
21
-0.2810928
0
LINE
8
DEFAULT_255_2_778
10
5.8207834
20
-0.2810928
11
5.8207834
21
-0.0164928
0
LINE
8
DEFAULT_255_2_778
10
5.8207834
20
-0.0164928
11
7.1299834
21
-0.0164928
0
LINE
8
DEFAULT_255_2_778
10
7.1299834
20
-0.0164928
11
7.1299834
21
-0.0164928
0
LINE
8
DEFAULT_255_2_778
10
8.4665834
20
-0.0164928
11
8.7311834
21
-0.0164928
0
LINE
8
DEFAULT_255_2_778
10
8.7311834
20
-0.0164928
11
8.7311834
21
-1.1878928
0
LINE
8
DEFAULT_255_2_778
10
8.0697834
20
-1.7664928
11
8.0186834
21
-1.7669928
0
LINE
8
DEFAULT_255_2_778
10
7.4082834
20
-1.1941928
11
7.4082834
21
-0.0164928
0
LINE
8
DEFAULT_255_2_778
10
7.4082834
20
-0.0164928
11
7.6863834
21
-0.0164928
0
LINE
8
DEFAULT_255_2_778
10
7.6863834
20
-0.0164928
11
7.6863834
21
-1.1830928
0
LINE
8
DEFAULT_255_2_778
10
8.4665834
20
-1.1841928
11
8.4665834
21
-0.0164928
0
LINE
8
DEFAULT_255_2_778
10
8.4665834
20
-0.0164928
11
8.4665834
21
-0.0164928
0
LINE
8
DEFAULT_255_2_778
10
9.5910834
20
-1.7693928
11
8.9957834
21
-1.7693928
0
LINE
8
DEFAULT_255_2_778
10
8.9957834
20
-1.7693928
11
8.9957834
21
-0.0434928
0
LINE
8
DEFAULT_255_2_778
10
8.9957834
20
-0.0434928
11
9.5492834
21
-0.0434928
0
LINE
8
DEFAULT_255_2_778
10
9.5831834
20
-1.7693928
11
9.5910834
21
-1.7693928
0
LINE
8
DEFAULT_255_2_778
10
9.5910834
20
-0.9756928
11
9.2190834
21
-0.9756928
0
LINE
8
DEFAULT_255_2_778
10
9.2190834
20
-0.9756928
11
9.2190834
21
-1.5868928
0
LINE
8
DEFAULT_255_2_778
10
9.2190834
20
-1.5868928
11
9.5876834
21
-1.5868928
0
LINE
8
DEFAULT_255_2_778
10
9.5907834
20
-0.9756928
11
9.5910834
21
-0.9756928
0
LINE
8
DEFAULT_255_2_778
10
9.2190834
20
-0.2271928
11
9.2209834
21
-0.8102928
0
LINE
8
DEFAULT_255_2_778
10
9.2209834
20
-0.8102928
11
9.5579834
21
-0.8102928
0
LINE
8
DEFAULT_255_2_778
10
9.5492834
20
-0.2273928
11
9.2190834
21
-0.2273928
0
LINE
8
DEFAULT_255_2_778
10
9.2190834
20
-0.2273928
11
9.2190834
21
-0.2271928
0
LINE
8
DEFAULT_255_2_778
10
11.5092834
20
-0.8102928
11
11.5092834
21
-0.9756928
0
LINE
8
DEFAULT_255_2_778
10
11.5092834
20
-0.9756928
11
10.8478834
21
-0.9756928
0
LINE
8
DEFAULT_255_2_778
10
10.8478834
20
-0.9756928
11
10.8478834
21
-1.5709928
0
LINE
8
DEFAULT_255_2_778
10
10.8478834
20
-1.5709928
11
11.6415834
21
-1.5709928
0
LINE
8
DEFAULT_255_2_778
10
11.6415834
20
-1.5709928
11
11.6415834
21
-1.7693928
0
LINE
8
DEFAULT_255_2_778
10
11.6415834
20
-1.7693928
11
10.5832834
21
-1.7693928
0
LINE
8
DEFAULT_255_2_778
10
10.5832834
20
-1.7693928
11
10.5832834
21
-0.0434928
0
LINE
8
DEFAULT_255_2_778
10
10.5832834
20
-0.0434928
11
11.6415834
21
-0.0495928
0
LINE
8
DEFAULT_255_2_778
10
11.6415834
20
-0.0495928
11
11.6415834
21
-0.2149928
0
LINE
8
DEFAULT_255_2_778
10
11.6415834
20
-0.2149928
11
10.8478834
21
-0.2149928
0
LINE
8
DEFAULT_255_2_778
10
10.8478834
20
-0.2149928
11
10.8478834
21
-0.8102928
0
LINE
8
DEFAULT_255_2_778
10
10.8478834
20
-0.8102928
11
11.5092834
21
-0.8102928
0
LINE
8
DEFAULT_255_2_778
10
11.5092834
20
-0.8102928
11
11.5092834
21
-0.8102928
0
ENDSEC
0
EOF