0
SECTION
2
HEADER
9
$MEASUREMENT
70
1
0
ENDSEC
0
SECTION
2
TABLES
0
TABLE
2
LTYPE
0
LTYPE
72
65
70
64
2
CONTINUOUS
3
______
73
0
40
0
0
ENDTAB
0
TABLE
2
LAYER
0
LAYER
2
DEFAULT_255_2_778
70
0
62
255
6
CONTINUOUS
0
LAYER
2
DEFAULT_255_1_388
70
0
62
255
6
CONTINUOUS
0
ENDTAB
0
ENDSEC
0
SECTION
2
ENTITIES
0
LINE
8
DEFAULT_255_2_778
10
15.4780752
20
2.5134831
11
3.5718752
21
2.5134831
0
LINE
8
DEFAULT_255_2_778
10
3.5718752
20
2.5134831
11
3.5718752
21
15.7426831
0
LINE
8
DEFAULT_255_2_778
10
3.5718752
20
15.7426831
11
15.4780752
21
15.7426831
0
LINE
8
DEFAULT_255_2_778
10
15.4780752
20
15.7426831
11
15.4780752
21
2.5134831
0
LINE
8
DEFAULT_255_2_778
10
7.5406
20
-2.7781503
11
7.5406
21
21.0343497
0
ARC
8
DEFAULT_255_2_778
10
9.6641722
20
7.202468
40
0.7202677
50
226.8665118
51
269.4523317
0
ARC
8
DEFAULT_255_2_778
10
9.9593829
20
7.5554101
40
1.1799511
50
215.7418135
51
228.1229413
0
ARC
8
DEFAULT_255_2_778
10
10.4224252
20
7.8928879
40
1.7529183
50
207.0872194
51
215.854179
0
ARC
8
DEFAULT_255_2_778
10
11.1013043
20
8.2433344
40
2.5169103
50
200.4336322
51
207.1528364
0
ARC
8
DEFAULT_255_2_778
10
11.9976331
20
8.5791818
40
3.4740918
50
194.7851039
51
200.4631
0
ARC
8
DEFAULT_255_2_778
10
13.0796362
20
8.8664057
40
4.5935676
50
189.6933279
51
194.8049695
0
ARC
8
DEFAULT_255_2_778
10
14.2558343
20
9.0672142
40
5.7867842
50
184.1348748
51
189.692335
0
ARC
8
DEFAULT_255_2_778
10
14.9840863
20
9.1265667
40
6.5174239
50
179.9866679
51
184.1936679
0
ARC
8
DEFAULT_255_2_778
10
14.815809
20
9.1349561
40
6.3491502
50
172.9363907
51
180.0620218
0
ARC
8
DEFAULT_255_2_778
10
13.6628914
20
9.2763841
40
5.1875917
50
167.761812
51
172.920695
0
ARC
8
DEFAULT_255_2_778
10
12.5209632
20
9.5246543
40
4.0189866
50
162.4925236
51
167.7698905
0
ARC
8
DEFAULT_255_2_778
10
11.5265923
20
9.8397994
40
2.9758723
50
156.3858279
51
162.5196705
0
ARC
8
DEFAULT_255_2_778
10
10.7322231
20
10.1890308
40
2.108128
50
148.7504114
51
156.4342888
0
ARC
8
DEFAULT_255_2_778
10
10.1645274
20
10.5355567
40
1.4430309
50
138.7144875
51
148.8198363
0
ARC
8
DEFAULT_255_2_778
10
9.8055408
20
10.8550193
40
0.9624974
50
123.0315232
51
138.9044195
0
ARC
8
DEFAULT_255_2_778
10
9.6575285
20
11.0845406
40
0.6893927
50
90.0200262
51
123.1165389
0
ARC
8
DEFAULT_255_2_778
10
5.4171029
20
7.202468
40
0.7202677
50
270.5476683
51
313.1334882
0
ARC
8
DEFAULT_255_2_778
10
5.1218921
20
7.5554101
40
1.1799511
50
311.8770587
51
324.2581865
0
ARC
8
DEFAULT_255_2_778
10
4.6588498
20
7.8928879
40
1.7529183
50
324.145821
51
332.9127806
0
ARC
8
DEFAULT_255_2_778
10
3.9799708
20
8.2433344
40
2.5169103
50
332.8471636
51
339.5663678
0
ARC
8
DEFAULT_255_2_778
10
3.0836419
20
8.5791818
40
3.4740918
50
339.5369
51
345.2148961
0
ARC
8
DEFAULT_255_2_778
10
2.0016389
20
8.8664057
40
4.5935676
50
345.1950305
51
350.3066721
0
ARC
8
DEFAULT_255_2_778
10
0.8254408
20
9.0672142
40
5.7867842
50
350.307665
51
355.8651252
0
ARC
8
DEFAULT_255_2_778
10
0.0971887
20
9.1265667
40
6.5174239
50
355.8063321
51
0.0133321
0
ARC
8
DEFAULT_255_2_778
10
0.2654661
20
9.1349561
40
6.3491502
50
359.9379782
51
7.0636093
0
ARC
8
DEFAULT_255_2_778
10
1.4183836
20
9.2763841
40
5.1875917
50
7.079305
51
12.238188
0
ARC
8
DEFAULT_255_2_778
10
2.5603119
20
9.5246543
40
4.0189866
50
12.2301095
51
17.5074764
0
ARC
8
DEFAULT_255_2_778
10
3.5546828
20
9.8397994
40
2.9758723
50
17.4803295
51
23.6141721
0
ARC
8
DEFAULT_255_2_778
10
4.3490519
20
10.1890308
40
2.108128
50
23.5657112
51
31.2495886
0
ARC
8
DEFAULT_255_2_778
10
4.9167477
20
10.5355567
40
1.4430309
50
31.1801637
51
41.2855125
0
ARC
8
DEFAULT_255_2_778
10
5.2757342
20
10.8550193
40
0.9624974
50
41.0955805
51
56.9684768
0
ARC
8
DEFAULT_255_2_778
10
5.4237466
20
11.0845406
40
0.6893927
50
56.8834611
51
89.9799738
0
LINE
8
DEFAULT_255_2_778
10
10.1864667
20
6.4822333
11
4.8947667
21
11.7739333
0
LINE
8
DEFAULT_255_2_778
10
4.8947667
20
11.7739333
11
5.6884667
21
9.9218333
0
LINE
8
DEFAULT_255_2_778
10
5.6884667
20
9.9218333
11
6.7468667
21
10.9802333
0
LINE
8
DEFAULT_255_2_778
10
6.7468667
20
10.9802333
11
4.8947667
21
11.7739333
0
ARC
8
DEFAULT_255_2_778
10
12.8349335
20
8.8605198
40
1.3202532
50
328.7968675
51
0.1300552
0
ARC
8
DEFAULT_255_2_778
10
12.8357931
20
8.8600864
40
1.3192936
50
277.5665172
51
328.7936255
0
ARC
8
DEFAULT_255_2_778
10
12.8326877
20
8.8868074
40
1.3461909
50
269.9827905
51
277.547783
0
ARC
8
DEFAULT_255_2_778
10
12.8292865
20
8.8608665
40
1.3202532
50
238.7968675
51
270.1300552
0
ARC
8
DEFAULT_255_2_778
10
12.8288532
20
8.8600069
40
1.3192936
50
187.5665172
51
238.7936255
0
ARC
8
DEFAULT_255_2_778
10
12.8555742
20
8.8631123
40
1.3461909
50
179.9827905
51
187.547783
0
ARC
8
DEFAULT_255_2_778
10
12.8296332
20
8.8665135
40
1.3202532
50
148.7968675
51
180.1300552
0
ARC
8
DEFAULT_255_2_778
10
12.8287736
20
8.8669468
40
1.3192936
50
97.5665172
51
148.7936255
0
ARC
8
DEFAULT_255_2_778
10
12.831879
20
8.8402258
40
1.3461909
50
89.9827905
51
97.547783
0
ARC
8
DEFAULT_255_2_778
10
12.8352802
20
8.8661668
40
1.3202532
50
58.7968675
51
90.1300552
0
ARC
8
DEFAULT_255_2_778
10
12.8357136
20
8.8670264
40
1.3192936
50
7.5665172
51
58.7936255
0
ARC
8
DEFAULT_255_2_778
10
12.8089926
20
8.863921
40
1.3461909
50
359.9827905
51
7.547783
0
LINE
8
DEFAULT_255_2_778
10
14.1551834
20
8.8635166
11
14.1551834
21
8.8635166
0
LINE
8
DEFAULT_255_2_778
10
12.8323667
20
7.540625
11
12.8323667
21
5.159425
0
LINE
8
DEFAULT_255_2_778
10
12.8323667
20
5.159425
11
7.5406667
21
5.159425
0
LINE
8
DEFAULT_255_2_778
10
12.8323667
20
10.715725
11
12.8323667
21
13.096925
0
LINE
8
DEFAULT_255_2_778
10
12.8323667
20
13.096925
11
7.5406667
21
13.096925
0
ARC
8
DEFAULT_255_2_778
10
7.541765
20
5.1582351
40
0.5279696
50
269.8771951
51
0.1227972
0
ARC
8
DEFAULT_255_2_778
10
7.5394232
20
5.1582563
40
0.527991
50
179.8795076
51
270.1313257
0
ARC
8
DEFAULT_255_2_778
10
7.5394447
20
5.1605553
40
0.5280127
50
89.8710178
51
180.1289822
0
ARC
8
DEFAULT_255_2_778
10
7.5417436
20
5.1605767
40
0.5279911
50
359.8686851
51
90.1204848
0
LINE
8
DEFAULT_255_2_778
10
8.0697333
20
5.1593667
11
8.0697333
21
5.1593667
0
ARC
8
DEFAULT_255_2_778
10
7.541765
20
13.0957351
40
0.5279696
50
269.8771951
51
0.1227972
0
ARC
8
DEFAULT_255_2_778
10
7.5394232
20
13.0957563
40
0.527991
50
179.8795076
51
270.1313257
0
ARC
8
DEFAULT_255_2_778
10
7.5394447
20
13.0980553
40
0.5280127
50
89.8710178
51
180.1289822
0
ARC
8
DEFAULT_255_2_778
10
7.5417436
20
13.0980767
40
0.5279911
50
359.8686851
51
90.1204848
0
LINE
8
DEFAULT_255_2_778
10
8.0697333
20
13.0968667
11
8.0697333
21
13.0968667
0
LINE
8
DEFAULT_255_2_778
10
10.7156334
20
8.5989333
11
12.8323334
21
10.7156333
0
LINE
8
DEFAULT_255_2_778
10
12.8323334
20
10.7156333
11
14.9489334
21
8.5989333
0
LINE
8
DEFAULT_255_1_388
10
5.0422985
20
-0.5073852
11
5.0422985
21
-1.8293
0
LINE
8
DEFAULT_255_1_388
10
5.0422985
20
-1.8293
11
4.8742355
21
-1.8293
0
LINE
8
DEFAULT_255_1_388
10
4.8742355
20
-1.8293
11
4.8742355
21
-0.715205
0
LINE
8
DEFAULT_255_1_388
10
4.8742355
20
-0.715205
11
4.537206
21
-0.8389934
0
LINE
8
DEFAULT_255_1_388
10
4.537206
20
-0.8389934
11
4.537206
21
-0.6871945
0
LINE
8
DEFAULT_255_1_388
10
4.537206
20
-0.6871945
11
5.0160951
21
-0.5073852
0
LINE
8
DEFAULT_255_1_388
10
5.0160951
20
-0.5073852
11
5.0422985
21
-0.5073852
0
LINE
8
DEFAULT_255_1_388
10
5.3466318
20
18.8922382
11
5.3466318
21
18.7558
0
LINE
8
DEFAULT_255_1_388
10
5.3466318
20
18.7558
11
4.4846313
21
18.7558
0
LINE
8
DEFAULT_255_1_388
10
4.4846313
20
18.7558
11
4.4846313
21
18.8759741
0
LINE
8
DEFAULT_255_1_388
10
4.4846313
20
18.8759741
11
4.9400278
21
19.3819702
0
LINE
8
DEFAULT_255_1_388
10
4.6264909
20
19.6837607
11
4.4593315
21
19.6837607
0
LINE
8
DEFAULT_255_1_388
10
5.0385163
20
19.274446
11
4.6861262
21
18.8922382
0
LINE
8
DEFAULT_255_1_388
10
4.6861262
20
18.8922382
11
5.3466318
21
18.8922382
0
ARC
8
DEFAULT_255_1_388
10
3.4224337
20
20.7239983
40
2.0258655
50
318.5132526
51
320.7829045
0
ARC
8
DEFAULT_255_1_388
10
4.0172294
20
20.2398929
40
1.2589638
50
320.7372878
51
323.9739031
0
ARC
8
DEFAULT_255_1_388
10
4.4581226
20
19.9204554
40
0.7145141
50
323.8962701
51
328.64194
0
ARC
8
DEFAULT_255_1_388
10
4.6883484
20
19.7784545
40
0.4440242
50
328.8294576
51
331.7891185
0
ARC
8
DEFAULT_255_1_388
10
4.8005804
20
19.7205374
40
0.3177517
50
331.4254512
51
352.9365785
0
ARC
8
DEFAULT_255_1_388
10
4.8158804
20
19.717105
40
0.3021496
50
353.2257659
51
0.0166158
0
ARC
8
DEFAULT_255_1_388
10
4.8395564
20
19.7196894
40
0.2784847
50
359.486299
51
15.9343185
0
ARC
8
DEFAULT_255_1_388
10
4.8965831
20
19.7350269
40
0.2194403
50
16.1712913
51
43.5286088
0
ARC
8
DEFAULT_255_1_388
10
4.9052776
20
19.7437191
40
0.2071504
50
43.4417391
51
83.1661095
0
ARC
8
DEFAULT_255_1_388
10
4.8901937
20
19.6608316
40
0.2912888
50
82.160179
51
90.1505708
0
ARC
8
DEFAULT_255_1_388
10
4.8866418
20
19.6004279
40
0.3517025
50
89.5460741
51
102.5418361
0
ARC
8
DEFAULT_255_1_388
10
4.8593138
20
19.7163933
40
0.2325748
50
102.1738499
51
129.206123
0
ARC
8
DEFAULT_255_1_388
10
4.8504592
20
19.7303664
40
0.2161591
50
129.72865
51
135.753947
0
ARC
8
DEFAULT_255_1_388
10
4.8641074
20
19.7194728
40
0.2335433
50
136.1757367
51
166.3673339
0
ARC
8
DEFAULT_255_1_388
10
4.9773762
20
19.6891148
40
0.3507873
50
165.9090694
51
178.8684636
0
ARC
8
DEFAULT_255_1_388
10
5.0749534
20
19.6838263
40
0.4484624
50
178.4391136
51
180.0083808
0
ARC
8
DEFAULT_255_1_388
10
4.9170235
20
19.6882197
40
0.4577138
50
163.2878482
51
180.5581842
0
ARC
8
DEFAULT_255_1_388
10
4.8268276
20
19.7130393
40
0.3641968
50
133.4540601
51
162.947111
0
ARC
8
DEFAULT_255_1_388
10
4.8469158
20
19.6916789
40
0.3935189
50
100.7869829
51
133.4382499
0
ARC
8
DEFAULT_255_1_388
10
4.8860403
20
19.5174399
40
0.5720313
50
89.660664
51
101.3702276
0
ARC
8
DEFAULT_255_1_388
10
4.8935012
20
19.5243263
40
0.5651495
50
78.2172678
51
90.412935
0
ARC
8
DEFAULT_255_1_388
10
4.9334478
20
19.7070511
40
0.378122
50
55.9269121
51
78.4888449
0
ARC
8
DEFAULT_255_1_388
10
4.9555193
20
19.7451187
40
0.3342379
50
47.929771
51
55.4049217
0
ARC
8
DEFAULT_255_1_388
10
4.9669723
20
19.7567618
40
0.3179217
50
4.334829
51
48.0560205
0
ARC
8
DEFAULT_255_1_388
10
4.8437525
20
19.7376487
40
0.442341
50
359.9251713
51
5.5971671
0
ARC
8
DEFAULT_255_1_388
10
4.891968
20
19.7439728
40
0.3941854
50
337.8914027
51
358.9967534
0
ARC
8
DEFAULT_255_1_388
10
4.586725
20
19.8617295
40
0.7213271
50
326.9132501
51
338.3508308
0
ARC
8
DEFAULT_255_1_388
10
4.1383362
20
20.1491105
40
1.2538973
50
319.6471833
51
327.0959558
0
ARC
8
DEFAULT_255_1_388
10
3.707002
20
20.504905
40
1.8129975
50
317.2588228
51
319.9045804
0
ENDSEC
0
EOF