0
SECTION
2
HEADER
9
$MEASUREMENT
70
1
0
ENDSEC
0
SECTION
2
TABLES
0
TABLE
2
LTYPE
0
LTYPE
72
65
70
64
2
CONTINUOUS
3
______
73
0
40
0
0
ENDTAB
0
TABLE
2
LAYER
0
LAYER
2
DEFAULT_255_2_778
70
0
62
255
6
CONTINUOUS
0
LAYER
2
DEFAULT_255_1_388
70
0
62
255
6
CONTINUOUS
0
ENDTAB
0
ENDSEC
0
SECTION
2
ENTITIES
0
LINE
8
DEFAULT_255_2_778
10
2.9104169
20
26.3260497
11
16.1396169
21
26.3260497
0
LINE
8
DEFAULT_255_2_778
10
16.1396169
20
26.3260497
11
16.1396169
21
2.5135497
0
LINE
8
DEFAULT_255_2_778
10
16.1396169
20
2.5135497
11
2.9104169
21
2.5135497
0
LINE
8
DEFAULT_255_2_778
10
2.9104169
20
2.5135497
11
2.9104169
21
26.3260497
0
ARC
8
DEFAULT_255_2_778
10
10.3255722
20
11.0536985
40
0.7202677
50
90.5476683
51
133.1334882
0
ARC
8
DEFAULT_255_2_778
10
10.6207829
20
10.7007564
40
1.1799511
50
131.8770587
51
144.2581865
0
ARC
8
DEFAULT_255_2_778
10
11.0838252
20
10.3632786
40
1.7529183
50
144.145821
51
152.9127806
0
ARC
8
DEFAULT_255_2_778
10
11.7627043
20
10.0128322
40
2.5169103
50
152.8471636
51
159.5663678
0
ARC
8
DEFAULT_255_2_778
10
12.6590331
20
9.6769847
40
3.4740918
50
159.5369
51
165.2148961
0
ARC
8
DEFAULT_255_2_778
10
13.7410362
20
9.3897608
40
4.5935676
50
165.1950305
51
170.3066721
0
ARC
8
DEFAULT_255_2_778
10
14.9172343
20
9.1889523
40
5.7867842
50
170.307665
51
175.8651252
0
ARC
8
DEFAULT_255_2_778
10
15.6454863
20
9.1295998
40
6.5174239
50
175.8063321
51
180.0133321
0
ARC
8
DEFAULT_255_2_778
10
15.477209
20
9.1212104
40
6.3491502
50
179.9379782
51
187.0636093
0
ARC
8
DEFAULT_255_2_778
10
14.3242914
20
8.9797825
40
5.1875917
50
187.079305
51
192.238188
0
ARC
8
DEFAULT_255_2_778
10
13.1823632
20
8.7315122
40
4.0189866
50
192.2301095
51
197.5074764
0
ARC
8
DEFAULT_255_2_778
10
12.1879923
20
8.4163671
40
2.9758723
50
197.4803295
51
203.6141721
0
ARC
8
DEFAULT_255_2_778
10
11.3936231
20
8.0671358
40
2.108128
50
203.5657112
51
211.2495886
0
ARC
8
DEFAULT_255_2_778
10
10.8259274
20
7.7206099
40
1.4430309
50
211.1801637
51
221.2855125
0
ARC
8
DEFAULT_255_2_778
10
10.4669408
20
7.4011472
40
0.9624974
50
221.0955805
51
236.9684768
0
ARC
8
DEFAULT_255_2_778
10
10.3189285
20
7.1716259
40
0.6893927
50
236.8834611
51
269.9799738
0
ARC
8
DEFAULT_255_2_778
10
6.0785029
20
11.0536985
40
0.7202677
50
46.8665118
51
89.4523317
0
ARC
8
DEFAULT_255_2_778
10
5.7832921
20
10.7007564
40
1.1799511
50
35.7418135
51
48.1229413
0
ARC
8
DEFAULT_255_2_778
10
5.3202498
20
10.3632786
40
1.7529183
50
27.0872194
51
35.854179
0
ARC
8
DEFAULT_255_2_778
10
4.6413708
20
10.0128322
40
2.5169103
50
20.4336322
51
27.1528364
0
ARC
8
DEFAULT_255_2_778
10
3.7450419
20
9.6769847
40
3.4740918
50
14.7851039
51
20.4631
0
ARC
8
DEFAULT_255_2_778
10
2.6630389
20
9.3897608
40
4.5935676
50
9.6933279
51
14.8049695
0
ARC
8
DEFAULT_255_2_778
10
1.4868408
20
9.1889523
40
5.7867842
50
4.1348748
51
9.692335
0
ARC
8
DEFAULT_255_2_778
10
0.7585887
20
9.1295998
40
6.5174239
50
359.9866679
51
4.1936679
0
ARC
8
DEFAULT_255_2_778
10
0.9268661
20
9.1212104
40
6.3491502
50
352.9363907
51
0.0620218
0
ARC
8
DEFAULT_255_2_778
10
2.0797836
20
8.9797825
40
5.1875917
50
347.761812
51
352.920695
0
ARC
8
DEFAULT_255_2_778
10
3.2217119
20
8.7315122
40
4.0189866
50
342.4925236
51
347.7698905
0
ARC
8
DEFAULT_255_2_778
10
4.2160828
20
8.4163671
40
2.9758723
50
336.3858279
51
342.5196705
0
ARC
8
DEFAULT_255_2_778
10
5.0104519
20
8.0671358
40
2.108128
50
328.7504114
51
336.4342888
0
ARC
8
DEFAULT_255_2_778
10
5.5781477
20
7.7206099
40
1.4430309
50
318.7144875
51
328.8198363
0
ARC
8
DEFAULT_255_2_778
10
5.9371342
20
7.4011472
40
0.9624974
50
303.0315232
51
318.9044195
0
ARC
8
DEFAULT_255_2_778
10
6.0851466
20
7.1716259
40
0.6893927
50
270.0200262
51
303.1165389
0
LINE
8
DEFAULT_255_2_778
10
10.8479667
20
6.4822333
11
5.5562667
21
11.7739333
0
LINE
8
DEFAULT_255_2_778
10
5.5562667
20
11.7739333
11
6.3499667
21
9.9218333
0
LINE
8
DEFAULT_255_2_778
10
6.3499667
20
9.9218333
11
7.4083667
21
10.9802333
0
LINE
8
DEFAULT_255_2_778
10
7.4083667
20
10.9802333
11
5.5562667
21
11.7739333
0
ARC
8
DEFAULT_255_2_778
10
13.4910332
20
9.3957135
40
1.3202532
50
148.7968675
51
180.1300552
0
ARC
8
DEFAULT_255_2_778
10
13.4901736
20
9.3961468
40
1.3192936
50
97.5665172
51
148.7936255
0
ARC
8
DEFAULT_255_2_778
10
13.493279
20
9.3694258
40
1.3461909
50
89.9827905
51
97.547783
0
ARC
8
DEFAULT_255_2_778
10
13.4966802
20
9.3953668
40
1.3202532
50
58.7968675
51
90.1300552
0
ARC
8
DEFAULT_255_2_778
10
13.4971136
20
9.3962264
40
1.3192936
50
7.5665172
51
58.7936255
0
ARC
8
DEFAULT_255_2_778
10
13.4703926
20
9.393121
40
1.3461909
50
359.9827905
51
7.547783
0
ARC
8
DEFAULT_255_2_778
10
13.4963335
20
9.3897198
40
1.3202532
50
328.7968675
51
0.1300552
0
ARC
8
DEFAULT_255_2_778
10
13.4971931
20
9.3892864
40
1.3192936
50
277.5665172
51
328.7936255
0
ARC
8
DEFAULT_255_2_778
10
13.4940877
20
9.4160074
40
1.3461909
50
269.9827905
51
277.547783
0
ARC
8
DEFAULT_255_2_778
10
13.4906865
20
9.3900665
40
1.3202532
50
238.7968675
51
270.1300552
0
ARC
8
DEFAULT_255_2_778
10
13.4902532
20
9.3892069
40
1.3192936
50
187.5665172
51
238.7936255
0
ARC
8
DEFAULT_255_2_778
10
13.5169742
20
9.3923123
40
1.3461909
50
179.9827905
51
187.547783
0
LINE
8
DEFAULT_255_2_778
10
12.1707834
20
9.3927166
11
12.1707834
21
9.3927166
0
LINE
8
DEFAULT_255_2_778
10
13.4937667
20
10.715625
11
13.4937667
21
13.096825
0
LINE
8
DEFAULT_255_2_778
10
13.4937667
20
13.096825
11
8.2020667
21
13.096825
0
LINE
8
DEFAULT_255_2_778
10
13.4937667
20
7.540625
11
13.4937667
21
5.159425
0
LINE
8
DEFAULT_255_2_778
10
13.4937667
20
5.159425
11
8.2020667
21
5.159425
0
ARC
8
DEFAULT_255_2_778
10
8.2009447
20
13.0979553
40
0.5280127
50
89.8710178
51
180.1289822
0
ARC
8
DEFAULT_255_2_778
10
8.2032436
20
13.0979767
40
0.5279911
50
359.8686851
51
90.1204848
0
ARC
8
DEFAULT_255_2_778
10
8.203265
20
13.0956351
40
0.5279696
50
269.8771951
51
0.1227972
0
ARC
8
DEFAULT_255_2_778
10
8.2009232
20
13.0956563
40
0.527991
50
179.8795076
51
270.1313257
0
LINE
8
DEFAULT_255_2_778
10
7.6729333
20
13.0967667
11
7.6729333
21
13.0967667
0
ARC
8
DEFAULT_255_2_778
10
8.2009447
20
5.1604553
40
0.5280127
50
89.8710178
51
180.1289822
0
ARC
8
DEFAULT_255_2_778
10
8.2032436
20
5.1604767
40
0.5279911
50
359.8686851
51
90.1204848
0
ARC
8
DEFAULT_255_2_778
10
8.203265
20
5.1581351
40
0.5279696
50
269.8771951
51
0.1227972
0
ARC
8
DEFAULT_255_2_778
10
8.2009232
20
5.1581563
40
0.527991
50
179.8795076
51
270.1313257
0
LINE
8
DEFAULT_255_2_778
10
7.6729333
20
5.1592667
11
7.6729333
21
5.1592667
0
LINE
8
DEFAULT_255_2_778
10
11.3770334
20
9.6572333
11
13.4937334
21
7.5405333
0
LINE
8
DEFAULT_255_2_778
10
13.4937334
20
7.5405333
11
15.6103334
21
9.6572333
0
LINE
8
DEFAULT_255_2_778
10
5.5562667
20
23.6801333
11
10.8479667
21
23.6801333
0
LINE
8
DEFAULT_255_2_778
10
10.8479667
20
23.6801333
11
10.8479667
21
18.3884333
0
LINE
8
DEFAULT_255_2_778
10
10.8479667
20
18.3884333
11
5.5562667
21
18.3884333
0
LINE
8
DEFAULT_255_2_778
10
5.5562667
20
18.3884333
11
5.5562667
21
23.6801333
0
LINE
8
DEFAULT_255_2_778
10
8.2021
20
31.6177165
11
8.2021
21
22.6219165
0
LINE
8
DEFAULT_255_2_778
10
21.4312335
20
21.0343
11
10.8479335
21
21.0343
0
LINE
8
DEFAULT_255_2_778
10
8.2021
20
19.4467997
11
8.2021
21
-2.7782003
0
LINE
8
DEFAULT_255_2_778
10
6.0854334
20
21.5635333
11
8.2021334
21
19.4468333
0
LINE
8
DEFAULT_255_2_778
10
8.2021334
20
19.4468333
11
10.3187334
21
21.5635333
0
ARC
8
DEFAULT_255_2_778
10
8.1994332
20
21.3019135
40
1.3202532
50
148.7968675
51
180.1300552
0
ARC
8
DEFAULT_255_2_778
10
8.1985736
20
21.3023468
40
1.3192936
50
97.5665172
51
148.7936255
0
ARC
8
DEFAULT_255_2_778
10
8.201679
20
21.2756258
40
1.3461909
50
89.9827905
51
97.547783
0
ARC
8
DEFAULT_255_2_778
10
8.2050802
20
21.3015668
40
1.3202532
50
58.7968675
51
90.1300552
0
ARC
8
DEFAULT_255_2_778
10
8.2055136
20
21.3024264
40
1.3192936
50
7.5665172
51
58.7936255
0
ARC
8
DEFAULT_255_2_778
10
8.1787926
20
21.299321
40
1.3461909
50
359.9827905
51
7.547783
0
ARC
8
DEFAULT_255_2_778
10
8.2047335
20
21.2959198
40
1.3202532
50
328.7968675
51
0.1300552
0
ARC
8
DEFAULT_255_2_778
10
8.2055931
20
21.2954864
40
1.3192936
50
277.5665172
51
328.7936255
0
ARC
8
DEFAULT_255_2_778
10
8.2024877
20
21.3222074
40
1.3461909
50
269.9827905
51
277.547783
0
ARC
8
DEFAULT_255_2_778
10
8.1990865
20
21.2962665
40
1.3202532
50
238.7968675
51
270.1300552
0
ARC
8
DEFAULT_255_2_778
10
8.1986532
20
21.2954069
40
1.3192936
50
187.5665172
51
238.7936255
0
ARC
8
DEFAULT_255_2_778
10
8.2253742
20
21.2985123
40
1.3461909
50
179.9827905
51
187.547783
0
LINE
8
DEFAULT_255_2_778
10
6.8791834
20
21.2989166
11
6.8791834
21
21.2989166
0
LINE
8
DEFAULT_255_1_388
10
5.7035985
20
30.6607148
11
5.7035985
21
29.3388
0
LINE
8
DEFAULT_255_1_388
10
5.7035985
20
29.3388
11
5.5355355
21
29.3388
0
LINE
8
DEFAULT_255_1_388
10
5.5355355
20
29.3388
11
5.5355355
21
30.452895
0
LINE
8
DEFAULT_255_1_388
10
5.5355355
20
30.452895
11
5.198506
21
30.3291066
0
LINE
8
DEFAULT_255_1_388
10
5.198506
20
30.3291066
11
5.198506
21
30.4809055
0
LINE
8
DEFAULT_255_1_388
10
5.198506
20
30.4809055
11
5.6773951
21
30.6607148
0
LINE
8
DEFAULT_255_1_388
10
5.6773951
20
30.6607148
11
5.7035985
21
30.6607148
0
LINE
8
DEFAULT_255_1_388
10
5.3889901
20
-1.2264225
11
5.3889901
21
-1.0899843
0
LINE
8
DEFAULT_255_1_388
10
5.3889901
20
-1.0899843
11
5.5145856
21
-1.0899843
0
LINE
8
DEFAULT_255_1_388
10
5.3004408
20
-0.8586718
11
5.1332814
21
-0.8586718
0
LINE
8
DEFAULT_255_1_388
10
5.1215351
20
-1.4821312
11
5.289598
21
-1.4821312
0
LINE
8
DEFAULT_255_1_388
10
5.5145856
20
-1.2264225
11
5.3889901
21
-1.2264225
0
ARC
8
DEFAULT_255_1_388
10
5.5113082
20
-0.7083078
40
0.3816905
50
270.491971
51
281.8953028
0
ARC
8
DEFAULT_255_1_388
10
5.5384509
20
-0.8322801
40
0.2547877
50
281.6690378
51
301.2943765
0
ARC
8
DEFAULT_255_1_388
10
5.5575961
20
-0.8673074
40
0.2149197
50
301.7834992
51
311.754567
0
ARC
8
DEFAULT_255_1_388
10
5.5679002
20
-0.878735
40
0.1995326
50
311.7325027
51
354.2803031
0
ARC
8
DEFAULT_255_1_388
10
5.4861418
20
-0.864672
40
0.2823461
50
353.0941646
51
0.1174696
0
ARC
8
DEFAULT_255_1_388
10
5.4342976
20
-0.8593126
40
0.3342238
50
359.1804452
51
15.0452323
0
ARC
8
DEFAULT_255_1_388
10
5.5857034
20
-0.8151454
40
0.1765747
50
13.957816
51
77.6713812
0
ARC
8
DEFAULT_255_1_388
10
5.542227
20
-0.9709536
40
0.3381982
50
76.111571
51
90.7028736
0
ARC
8
DEFAULT_255_1_388
10
5.5355682
20
-0.940175
40
0.3074046
50
89.5321574
51
103.5319393
0
ARC
8
DEFAULT_255_1_388
10
5.5130066
20
-0.8502557
40
0.2147041
50
103.2930114
51
133.5619756
0
ARC
8
DEFAULT_255_1_388
10
5.5080007
20
-0.8435649
40
0.2064084
50
133.8349761
51
173.5343225
0
ARC
8
DEFAULT_255_1_388
10
5.5893665
20
-0.8579856
40
0.2889266
50
172.5097183
51
180.1360699
0
ARC
8
DEFAULT_255_1_388
10
5.4823429
20
-0.854112
40
0.3490913
50
155.3483706
51
180.7484035
0
ARC
8
DEFAULT_255_1_388
10
5.4768404
20
-0.8573481
40
0.3454798
50
131.5745177
51
154.4799474
0
ARC
8
DEFAULT_255_1_388
10
5.5120687
20
-0.8929578
40
0.3955058
50
96.9874487
51
131.9690874
0
ARC
8
DEFAULT_255_1_388
10
5.536758
20
-1.0330593
40
0.537622
50
89.8592909
51
97.7827481
0
ARC
8
DEFAULT_255_1_388
10
5.5421689
20
-1.062564
40
0.5671399
50
78.3654493
51
90.4132586
0
ARC
8
DEFAULT_255_1_388
10
5.582433
20
-0.8759082
40
0.3762034
50
56.6229818
51
78.6387103
0
ARC
8
DEFAULT_255_1_388
10
5.6066159
20
-0.8336154
40
0.3275964
50
47.0254604
51
56.085558
0
ARC
8
DEFAULT_255_1_388
10
5.608841
20
-0.8291811
40
0.3228382
50
10.9207523
51
46.777927
0
ARC
8
DEFAULT_255_1_388
10
5.4554004
20
-0.8646599
40
0.4802559
50
359.6364235
51
11.6087615
0
ARC
8
DEFAULT_255_1_388
10
5.661817
20
-0.8663596
40
0.273833
50
332.3549969
51
359.7179765
0
ARC
8
DEFAULT_255_1_388
10
5.588657
20
-0.8316715
40
0.3547505
50
325.2332381
51
332.8746682
0
ARC
8
DEFAULT_255_1_388
10
5.6058153
20
-0.8436237
40
0.3338396
50
292.9803892
51
325.2391113
0
ARC
8
DEFAULT_255_1_388
10
5.5747349
20
-0.7831321
40
0.4016959
50
292.542178
51
293.6931461
0
ARC
8
DEFAULT_255_1_388
10
5.6190921
20
-1.5096964
40
0.372079
50
57.643292
51
72.8626085
0
ARC
8
DEFAULT_255_1_388
10
5.6589755
20
-1.4450727
40
0.2961455
50
36.7246661
51
57.4701329
0
ARC
8
DEFAULT_255_1_388
10
5.6576912
20
-1.443653
40
0.2963321
50
8.054535
51
36.3561529
0
ARC
8
DEFAULT_255_1_388
10
5.5606585
20
-1.4610927
40
0.3948682
50
359.8316595
51
8.5873361
0
ARC
8
DEFAULT_255_1_388
10
5.5184059
20
-1.466503
40
0.4371398
50
343.9831631
51
0.557075
0
ARC
8
DEFAULT_255_1_388
10
5.6181108
20
-1.4938037
40
0.3337749
50
311.6358204
51
343.7652116
0
ARC
8
DEFAULT_255_1_388
10
5.5755362
20
-1.4458045
40
0.3979351
50
279.7829743
51
311.625622
0
ARC
8
DEFAULT_255_1_388
10
5.5416497
20
-1.2841358
40
0.5630417
50
269.7285092
51
280.3857694
0
ARC
8
DEFAULT_255_1_388
10
5.534681
20
-1.2887759
40
0.5584119
50
256.6827433
51
270.4412869
0
ARC
8
DEFAULT_255_1_388
10
5.4965797
20
-1.4445302
40
0.3980715
50
229.4223821
51
256.8554507
0
ARC
8
DEFAULT_255_1_388
10
5.449935
20
-1.4970317
40
0.3278564
50
181.8183354
51
229.6455015
0
ARC
8
DEFAULT_255_1_388
10
5.566896
20
-1.4823175
40
0.4453611
50
179.9760419
51
183.2330638
0
ARC
8
DEFAULT_255_1_388
10
5.5475512
20
-1.4846219
40
0.2579652
50
179.4467996
51
196.2871626
0
ARC
8
DEFAULT_255_1_388
10
5.4926966
20
-1.4996291
40
0.2011057
50
196.5661293
51
227.7059371
0
ARC
8
DEFAULT_255_1_388
10
5.5111573
20
-1.4789845
40
0.2287994
50
227.7653015
51
257.8763321
0
ARC
8
DEFAULT_255_1_388
10
5.5364656
20
-1.3729039
40
0.3378385
50
257.4583525
51
270.4267406
0
ARC
8
DEFAULT_255_1_388
10
5.5415906
20
-1.340277
40
0.3704652
50
269.5965319
51
280.8788143
0
ARC
8
DEFAULT_255_1_388
10
5.5674134
20
-1.4692471
40
0.2389415
50
280.6347277
51
299.8594068
0
ARC
8
DEFAULT_255_1_388
10
5.5888903
20
-1.5100264
40
0.19289
50
300.3575552
51
314.5515667
0
ARC
8
DEFAULT_255_1_388
10
5.5795579
20
-1.5031975
40
0.204312
50
315.0730962
51
345.0429362
0
ARC
8
DEFAULT_255_1_388
10
5.4757087
20
-1.4729461
40
0.31246
50
344.598526
51
357.9270698
0
ARC
8
DEFAULT_255_1_388
10
5.3747391
20
-1.4660295
40
0.4136265
50
357.4755098
51
0.0224936
0
ARC
8
DEFAULT_255_1_388
10
5.4900269
20
-1.4632901
40
0.2983498
50
359.5051035
51
13.4236939
0
ARC
8
DEFAULT_255_1_388
10
5.5875359
20
-1.4383363
40
0.1977186
50
12.9497905
51
48.7550905
0
ARC
8
DEFAULT_255_1_388
10
5.5670281
20
-1.4663627
40
0.2323321
50
49.509109
51
72.1832965
0
ARC
8
DEFAULT_255_1_388
10
5.5267749
20
-1.5858368
40
0.358397
50
71.9008458
51
84.3555134
0
ARC
8
DEFAULT_255_1_388
10
5.5086144
20
-1.7390288
40
0.512641
50
84.019632
51
89.3326067
0
LINE
8
DEFAULT_255_1_388
10
19.2373318
20
22.1195382
11
19.2373318
21
21.9831
0
LINE
8
DEFAULT_255_1_388
10
19.2373318
20
21.9831
11
18.3753313
21
21.9831
0
LINE
8
DEFAULT_255_1_388
10
18.3753313
20
21.9831
11
18.3753313
21
22.1032741
0
LINE
8
DEFAULT_255_1_388
10
18.3753313
20
22.1032741
11
18.8307278
21
22.6092702
0
LINE
8
DEFAULT_255_1_388
10
18.5171909
20
22.9110607
11
18.3500315
21
22.9110607
0
LINE
8
DEFAULT_255_1_388
10
18.9292163
20
22.501746
11
18.5768262
21
22.1195382
0
LINE
8
DEFAULT_255_1_388
10
18.5768262
20
22.1195382
11
19.2373318
21
22.1195382
0
ARC
8
DEFAULT_255_1_388
10
17.3131337
20
23.9512983
40
2.0258655
50
318.5132526
51
320.7829045
0
ARC
8
DEFAULT_255_1_388
10
17.9079294
20
23.4671929
40
1.2589638
50
320.7372878
51
323.9739031
0
ARC
8
DEFAULT_255_1_388
10
18.3488226
20
23.1477554
40
0.7145141
50
323.8962701
51
328.64194
0
ARC
8
DEFAULT_255_1_388
10
18.5790484
20
23.0057545
40
0.4440242
50
328.8294576
51
331.7891185
0
ARC
8
DEFAULT_255_1_388
10
18.6912804
20
22.9478374
40
0.3177517
50
331.4254512
51
352.9365785
0
ARC
8
DEFAULT_255_1_388
10
18.7065804
20
22.944405
40
0.3021496
50
353.2257659
51
0.0166158
0
ARC
8
DEFAULT_255_1_388
10
18.7302564
20
22.9469894
40
0.2784847
50
359.486299
51
15.9343185
0
ARC
8
DEFAULT_255_1_388
10
18.7872831
20
22.9623269
40
0.2194403
50
16.1712913
51
43.5286088
0
ARC
8
DEFAULT_255_1_388
10
18.7959776
20
22.9710191
40
0.2071504
50
43.4417391
51
83.1661095
0
ARC
8
DEFAULT_255_1_388
10
18.7808937
20
22.8881316
40
0.2912888
50
82.160179
51
90.1505708
0
ARC
8
DEFAULT_255_1_388
10
18.7773418
20
22.8277279
40
0.3517025
50
89.5460741
51
102.5418361
0
ARC
8
DEFAULT_255_1_388
10
18.7500138
20
22.9436933
40
0.2325748
50
102.1738499
51
129.206123
0
ARC
8
DEFAULT_255_1_388
10
18.7411592
20
22.9576664
40
0.2161591
50
129.72865
51
135.753947
0
ARC
8
DEFAULT_255_1_388
10
18.7548074
20
22.9467728
40
0.2335433
50
136.1757367
51
166.3673339
0
ARC
8
DEFAULT_255_1_388
10
18.8680762
20
22.9164148
40
0.3507873
50
165.9090694
51
178.8684636
0
ARC
8
DEFAULT_255_1_388
10
18.9656534
20
22.9111263
40
0.4484624
50
178.4391136
51
180.0083808
0
ARC
8
DEFAULT_255_1_388
10
18.8077235
20
22.9155197
40
0.4577138
50
163.2878482
51
180.5581842
0
ARC
8
DEFAULT_255_1_388
10
18.7175276
20
22.9403393
40
0.3641968
50
133.4540601
51
162.947111
0
ARC
8
DEFAULT_255_1_388
10
18.7376158
20
22.9189789
40
0.3935189
50
100.7869829
51
133.4382499
0
ARC
8
DEFAULT_255_1_388
10
18.7767403
20
22.7447399
40
0.5720313
50
89.660664
51
101.3702276
0
ARC
8
DEFAULT_255_1_388
10
18.7842012
20
22.7516263
40
0.5651495
50
78.2172678
51
90.412935
0
ARC
8
DEFAULT_255_1_388
10
18.8241478
20
22.9343511
40
0.378122
50
55.9269121
51
78.4888449
0
ARC
8
DEFAULT_255_1_388
10
18.8462193
20
22.9724187
40
0.3342379
50
47.929771
51
55.4049217
0
ARC
8
DEFAULT_255_1_388
10
18.8576723
20
22.9840618
40
0.3179217
50
4.334829
51
48.0560205
0
ARC
8
DEFAULT_255_1_388
10
18.7344525
20
22.9649487
40
0.442341
50
359.9251713
51
5.5971671
0
ARC
8
DEFAULT_255_1_388
10
18.782668
20
22.9712728
40
0.3941854
50
337.8914027
51
358.9967534
0
ARC
8
DEFAULT_255_1_388
10
18.477425
20
23.0890295
40
0.7213271
50
326.9132501
51
338.3508308
0
ARC
8
DEFAULT_255_1_388
10
18.0290362
20
23.3764105
40
1.2538973
50
319.6471833
51
327.0959558
0
ARC
8
DEFAULT_255_1_388
10
17.597702
20
23.732205
40
1.8129975
50
317.2588228
51
319.9045804
0
ENDSEC
0
EOF