0
SECTION
2
HEADER
9
$MEASUREMENT
70
1
0
ENDSEC
0
SECTION
2
TABLES
0
TABLE
2
LTYPE
0
LTYPE
72
65
70
64
2
CONTINUOUS
3
______
73
0
40
0
0
ENDTAB
0
TABLE
2
LAYER
0
LAYER
2
DEFAULT_255_2_778
70
0
62
255
6
CONTINUOUS
0
LAYER
2
DEFAULT_255_1_388
70
0
62
255
6
CONTINUOUS
0
ENDTAB
0
ENDSEC
0
SECTION
2
ENTITIES
0
LINE
8
DEFAULT_255_2_778
10
3.5716002
20
18.3884998
11
19.4466002
21
18.3884998
0
LINE
8
DEFAULT_255_2_778
10
19.4466002
20
18.3884998
11
19.4466002
21
2.5134998
0
LINE
8
DEFAULT_255_2_778
10
19.4466002
20
2.5134998
11
3.5716002
21
2.5134998
0
LINE
8
DEFAULT_255_2_778
10
3.5716002
20
2.5134998
11
3.5716002
21
18.3884998
0
LINE
8
DEFAULT_255_2_778
10
11.5091
20
2.5135333
11
11.5091
21
-2.7781667
0
LINE
8
DEFAULT_255_2_778
10
7.5403417
20
15.7426499
11
6.2174417
21
15.7426499
0
LINE
8
DEFAULT_255_2_778
10
6.2174417
20
15.7426499
11
6.2174417
21
23.6801499
0
LINE
8
DEFAULT_255_2_778
10
8.8632834
20
17.0655499
11
10.1861834
21
15.7426499
0
LINE
8
DEFAULT_255_2_778
10
10.1861834
20
15.7426499
11
11.5090834
21
15.7426499
0
LINE
8
DEFAULT_255_2_778
10
11.5090834
20
15.7426499
11
11.5090834
21
23.6801499
0
LINE
8
DEFAULT_255_2_778
10
16.8008
20
18.3884333
11
16.8008
21
23.6801333
0
ARC
8
DEFAULT_255_2_778
10
10.183869
20
15.7447541
40
0.7914215
50
129.1312896
51
180.1450914
0
ARC
8
DEFAULT_255_2_778
10
10.1841342
20
15.7452412
40
0.7912112
50
89.854026
51
129.1684493
0
ARC
8
DEFAULT_255_2_778
10
10.1881934
20
15.7449278
40
0.7915249
50
39.4792447
51
90.147911
0
ARC
8
DEFAULT_255_2_778
10
10.1887932
20
15.7447744
40
0.7911595
50
359.8533901
51
39.5154338
0
ARC
8
DEFAULT_255_2_778
10
10.188469
20
15.7407018
40
0.7914836
50
309.4761667
51
0.1482649
0
ARC
8
DEFAULT_255_2_778
10
10.1881976
20
15.7402708
40
0.7913235
50
269.8517415
51
309.511178
0
ARC
8
DEFAULT_255_2_778
10
10.1841417
20
15.7403289
40
0.7913815
50
219.1282118
51
270.1454017
0
ARC
8
DEFAULT_255_2_778
10
10.1838244
20
15.7407114
40
0.7913769
50
179.8524075
51
219.1641908
0
LINE
8
DEFAULT_255_2_778
10
9.39245
20
15.74275
11
9.39245
21
15.74275
0
LINE
8
DEFAULT_255_2_778
10
8.8632667
20
13.0968333
11
14.1549667
21
13.0968333
0
LINE
8
DEFAULT_255_2_778
10
14.1549667
20
13.0968333
11
14.1549667
21
7.8051333
0
LINE
8
DEFAULT_255_2_778
10
14.1549667
20
7.8051333
11
8.8632667
21
7.8051333
0
LINE
8
DEFAULT_255_2_778
10
8.8632667
20
7.8051333
11
8.8632667
21
13.0968333
0
LINE
8
DEFAULT_255_2_778
10
7.5403417
20
10.451
11
8.8632417
21
10.451
0
LINE
8
DEFAULT_255_2_778
10
15.4778417
20
10.451
11
14.1549417
21
10.451
0
LINE
8
DEFAULT_255_2_778
10
10.1861834
20
10.451
11
12.8319834
21
10.451
0
LINE
8
DEFAULT_255_2_778
10
11.5091
20
10.4510583
11
11.5091
21
9.1281583
0
LINE
8
DEFAULT_255_2_778
10
10.1862417
20
11.7739583
11
11.5091417
21
10.4510583
0
LINE
8
DEFAULT_255_2_778
10
12.8320417
20
11.7739583
11
11.5091417
21
10.4510583
0
LINE
8
DEFAULT_255_2_778
10
3.5716169
20
6.4822749
11
16.8008169
21
2.5135749
0
LINE
8
DEFAULT_255_2_778
10
10.1861834
20
2.513575
11
11.5090834
21
3.307275
0
LINE
8
DEFAULT_255_2_778
10
11.5090834
20
3.307275
11
12.8319834
21
2.513575
0
LINE
8
DEFAULT_255_1_388
10
9.0106985
20
-0.5084852
11
9.0106985
21
-1.8304
0
LINE
8
DEFAULT_255_1_388
10
9.0106985
20
-1.8304
11
8.8426355
21
-1.8304
0
LINE
8
DEFAULT_255_1_388
10
8.8426355
20
-1.8304
11
8.8426355
21
-0.716305
0
LINE
8
DEFAULT_255_1_388
10
8.8426355
20
-0.716305
11
8.505606
21
-0.8400934
0
LINE
8
DEFAULT_255_1_388
10
8.505606
20
-0.8400934
11
8.505606
21
-0.6882945
0
LINE
8
DEFAULT_255_1_388
10
8.505606
20
-0.6882945
11
8.9844951
21
-0.5084852
0
LINE
8
DEFAULT_255_1_388
10
8.9844951
20
-0.5084852
11
9.0106985
21
-0.5084852
0
LINE
8
DEFAULT_255_1_388
10
4.3078318
20
21.5390382
11
4.3078318
21
21.4026
0
LINE
8
DEFAULT_255_1_388
10
4.3078318
20
21.4026
11
3.4458313
21
21.4026
0
LINE
8
DEFAULT_255_1_388
10
3.4458313
20
21.4026
11
3.4458313
21
21.5227741
0
LINE
8
DEFAULT_255_1_388
10
3.4458313
20
21.5227741
11
3.9012278
21
22.0287702
0
LINE
8
DEFAULT_255_1_388
10
3.5876909
20
22.3305607
11
3.4205315
21
22.3305607
0
LINE
8
DEFAULT_255_1_388
10
3.9997163
20
21.921246
11
3.6473262
21
21.5390382
0
LINE
8
DEFAULT_255_1_388
10
3.6473262
20
21.5390382
11
4.3078318
21
21.5390382
0
ARC
8
DEFAULT_255_1_388
10
2.3836337
20
23.3707983
40
2.0258655
50
318.5132526
51
320.7829045
0
ARC
8
DEFAULT_255_1_388
10
2.9784294
20
22.8866929
40
1.2589638
50
320.7372878
51
323.9739031
0
ARC
8
DEFAULT_255_1_388
10
3.4193226
20
22.5672554
40
0.7145141
50
323.8962701
51
328.64194
0
ARC
8
DEFAULT_255_1_388
10
3.6495484
20
22.4252545
40
0.4440242
50
328.8294576
51
331.7891185
0
ARC
8
DEFAULT_255_1_388
10
3.7617804
20
22.3673374
40
0.3177517
50
331.4254512
51
352.9365785
0
ARC
8
DEFAULT_255_1_388
10
3.7770804
20
22.363905
40
0.3021496
50
353.2257659
51
0.0166158
0
ARC
8
DEFAULT_255_1_388
10
3.8007564
20
22.3664894
40
0.2784847
50
359.486299
51
15.9343185
0
ARC
8
DEFAULT_255_1_388
10
3.8577831
20
22.3818269
40
0.2194403
50
16.1712913
51
43.5286088
0
ARC
8
DEFAULT_255_1_388
10
3.8664776
20
22.3905191
40
0.2071504
50
43.4417391
51
83.1661095
0
ARC
8
DEFAULT_255_1_388
10
3.8513937
20
22.3076316
40
0.2912888
50
82.160179
51
90.1505708
0
ARC
8
DEFAULT_255_1_388
10
3.8478418
20
22.2472279
40
0.3517025
50
89.5460741
51
102.5418361
0
ARC
8
DEFAULT_255_1_388
10
3.8205138
20
22.3631933
40
0.2325748
50
102.1738499
51
129.206123
0
ARC
8
DEFAULT_255_1_388
10
3.8116592
20
22.3771664
40
0.2161591
50
129.72865
51
135.753947
0
ARC
8
DEFAULT_255_1_388
10
3.8253074
20
22.3662728
40
0.2335433
50
136.1757367
51
166.3673339
0
ARC
8
DEFAULT_255_1_388
10
3.9385762
20
22.3359148
40
0.3507873
50
165.9090694
51
178.8684636
0
ARC
8
DEFAULT_255_1_388
10
4.0361534
20
22.3306263
40
0.4484624
50
178.4391136
51
180.0083808
0
ARC
8
DEFAULT_255_1_388
10
3.8782235
20
22.3350197
40
0.4577138
50
163.2878482
51
180.5581842
0
ARC
8
DEFAULT_255_1_388
10
3.7880276
20
22.3598393
40
0.3641968
50
133.4540601
51
162.947111
0
ARC
8
DEFAULT_255_1_388
10
3.8081158
20
22.3384789
40
0.3935189
50
100.7869829
51
133.4382499
0
ARC
8
DEFAULT_255_1_388
10
3.8472403
20
22.1642399
40
0.5720313
50
89.660664
51
101.3702276
0
ARC
8
DEFAULT_255_1_388
10
3.8547012
20
22.1711263
40
0.5651495
50
78.2172678
51
90.412935
0
ARC
8
DEFAULT_255_1_388
10
3.8946478
20
22.3538511
40
0.378122
50
55.9269121
51
78.4888449
0
ARC
8
DEFAULT_255_1_388
10
3.9167193
20
22.3919187
40
0.3342379
50
47.929771
51
55.4049217
0
ARC
8
DEFAULT_255_1_388
10
3.9281723
20
22.4035618
40
0.3179217
50
4.334829
51
48.0560205
0
ARC
8
DEFAULT_255_1_388
10
3.8049525
20
22.3844487
40
0.442341
50
359.9251713
51
5.5971671
0
ARC
8
DEFAULT_255_1_388
10
3.853168
20
22.3907728
40
0.3941854
50
337.8914027
51
358.9967534
0
ARC
8
DEFAULT_255_1_388
10
3.547925
20
22.5085295
40
0.7213271
50
326.9132501
51
338.3508308
0
ARC
8
DEFAULT_255_1_388
10
3.0995362
20
22.7959105
40
1.2538973
50
319.6471833
51
327.0959558
0
ARC
8
DEFAULT_255_1_388
10
2.668202
20
23.151705
40
1.8129975
50
317.2588228
51
319.9045804
0
LINE
8
DEFAULT_255_1_388
10
4.7279893
20
22.0052775
11
4.7279893
21
22.1417157
0
LINE
8
DEFAULT_255_1_388
10
4.7279893
20
22.1417157
11
4.8535847
21
22.1417157
0
LINE
8
DEFAULT_255_1_388
10
4.6394399
20
22.3730282
11
4.4722805
21
22.3730282
0
LINE
8
DEFAULT_255_1_388
10
4.4605342
20
21.7495687
11
4.6285972
21
21.7495687
0
LINE
8
DEFAULT_255_1_388
10
4.8535847
20
22.0052775
11
4.7279893
21
22.0052775
0
ARC
8
DEFAULT_255_1_388
10
4.8503074
20
22.5233922
40
0.3816905
50
270.491971
51
281.8953028
0
ARC
8
DEFAULT_255_1_388
10
4.8774501
20
22.3994199
40
0.2547877
50
281.6690378
51
301.2943765
0
ARC
8
DEFAULT_255_1_388
10
4.8965952
20
22.3643926
40
0.2149197
50
301.7834992
51
311.754567
0
ARC
8
DEFAULT_255_1_388
10
4.9068993
20
22.352965
40
0.1995326
50
311.7325027
51
354.2803031
0
ARC
8
DEFAULT_255_1_388
10
4.8251409
20
22.367028
40
0.2823461
50
353.0941646
51
0.1174696
0
ARC
8
DEFAULT_255_1_388
10
4.7732967
20
22.3723874
40
0.3342238
50
359.1804452
51
15.0452323
0
ARC
8
DEFAULT_255_1_388
10
4.9247026
20
22.4165546
40
0.1765747
50
13.957816
51
77.6713812
0
ARC
8
DEFAULT_255_1_388
10
4.8812261
20
22.2607464
40
0.3381982
50
76.111571
51
90.7028736
0
ARC
8
DEFAULT_255_1_388
10
4.8745673
20
22.291525
40
0.3074046
50
89.5321574
51
103.5319393
0
ARC
8
DEFAULT_255_1_388
10
4.8520057
20
22.3814443
40
0.2147041
50
103.2930114
51
133.5619756
0
ARC
8
DEFAULT_255_1_388
10
4.8469999
20
22.3881351
40
0.2064084
50
133.8349761
51
173.5343225
0
ARC
8
DEFAULT_255_1_388
10
4.9283656
20
22.3737144
40
0.2889266
50
172.5097183
51
180.1360699
0
ARC
8
DEFAULT_255_1_388
10
4.821342
20
22.377588
40
0.3490913
50
155.3483706
51
180.7484035
0
ARC
8
DEFAULT_255_1_388
10
4.8158396
20
22.3743519
40
0.3454798
50
131.5745177
51
154.4799474
0
ARC
8
DEFAULT_255_1_388
10
4.8510678
20
22.3387422
40
0.3955058
50
96.9874487
51
131.9690874
0
ARC
8
DEFAULT_255_1_388
10
4.8757571
20
22.1986407
40
0.537622
50
89.8592909
51
97.7827481
0
ARC
8
DEFAULT_255_1_388
10
4.881168
20
22.169136
40
0.5671399
50
78.3654493
51
90.4132586
0
ARC
8
DEFAULT_255_1_388
10
4.9214321
20
22.3557918
40
0.3762034
50
56.6229818
51
78.6387103
0
ARC
8
DEFAULT_255_1_388
10
4.945615
20
22.3980846
40
0.3275964
50
47.0254604
51
56.085558
0
ARC
8
DEFAULT_255_1_388
10
4.9478401
20
22.4025189
40
0.3228382
50
10.9207523
51
46.777927
0
ARC
8
DEFAULT_255_1_388
10
4.7943995
20
22.3670401
40
0.4802559
50
359.6364235
51
11.6087615
0
ARC
8
DEFAULT_255_1_388
10
5.0008161
20
22.3653404
40
0.273833
50
332.3549969
51
359.7179765
0
ARC
8
DEFAULT_255_1_388
10
4.9276562
20
22.4000285
40
0.3547505
50
325.2332381
51
332.8746682
0
ARC
8
DEFAULT_255_1_388
10
4.9448144
20
22.3880763
40
0.3338396
50
292.9803892
51
325.2391113
0
ARC
8
DEFAULT_255_1_388
10
4.913734
20
22.4485679
40
0.4016959
50
292.542178
51
293.6931461
0
ARC
8
DEFAULT_255_1_388
10
4.9580912
20
21.7220036
40
0.372079
50
57.643292
51
72.8626085
0
ARC
8
DEFAULT_255_1_388
10
4.9979747
20
21.7866273
40
0.2961455
50
36.7246661
51
57.4701329
0
ARC
8
DEFAULT_255_1_388
10
4.9966903
20
21.788047
40
0.2963321
50
8.054535
51
36.3561529
0
ARC
8
DEFAULT_255_1_388
10
4.8996576
20
21.7706073
40
0.3948682
50
359.8316595
51
8.5873361
0
ARC
8
DEFAULT_255_1_388
10
4.857405
20
21.765197
40
0.4371398
50
343.9831631
51
0.557075
0
ARC
8
DEFAULT_255_1_388
10
4.95711
20
21.7378963
40
0.3337749
50
311.6358204
51
343.7652116
0
ARC
8
DEFAULT_255_1_388
10
4.9145353
20
21.7858955
40
0.3979351
50
279.7829743
51
311.625622
0
ARC
8
DEFAULT_255_1_388
10
4.8806489
20
21.9475642
40
0.5630417
50
269.7285092
51
280.3857694
0
ARC
8
DEFAULT_255_1_388
10
4.8736802
20
21.9429241
40
0.5584119
50
256.6827433
51
270.4412869
0
ARC
8
DEFAULT_255_1_388
10
4.8355788
20
21.7871698
40
0.3980715
50
229.4223821
51
256.8554507
0
ARC
8
DEFAULT_255_1_388
10
4.7889342
20
21.7346683
40
0.3278564
50
181.8183354
51
229.6455015
0
ARC
8
DEFAULT_255_1_388
10
4.9058951
20
21.7493825
40
0.4453611
50
179.9760419
51
183.2330638
0
ARC
8
DEFAULT_255_1_388
10
4.8865503
20
21.7470781
40
0.2579652
50
179.4467996
51
196.2871626
0
ARC
8
DEFAULT_255_1_388
10
4.8316957
20
21.7320709
40
0.2011057
50
196.5661293
51
227.7059371
0
ARC
8
DEFAULT_255_1_388
10
4.8501564
20
21.7527155
40
0.2287994
50
227.7653015
51
257.8763321
0
ARC
8
DEFAULT_255_1_388
10
4.8754647
20
21.8587961
40
0.3378385
50
257.4583525
51
270.4267406
0
ARC
8
DEFAULT_255_1_388
10
4.8805897
20
21.891423
40
0.3704652
50
269.5965319
51
280.8788143
0
ARC
8
DEFAULT_255_1_388
10
4.9064125
20
21.7624529
40
0.2389415
50
280.6347277
51
299.8594068
0
ARC
8
DEFAULT_255_1_388
10
4.9278895
20
21.7216736
40
0.19289
50
300.3575552
51
314.5515667
0
ARC
8
DEFAULT_255_1_388
10
4.918557
20
21.7285025
40
0.204312
50
315.0730962
51
345.0429362
0
ARC
8
DEFAULT_255_1_388
10
4.8147078
20
21.7587539
40
0.31246
50
344.598526
51
357.9270698
0
ARC
8
DEFAULT_255_1_388
10
4.7137383
20
21.7656705
40
0.4136265
50
357.4755098
51
0.0224936
0
ARC
8
DEFAULT_255_1_388
10
4.829026
20
21.7684099
40
0.2983498
50
359.5051035
51
13.4236939
0
ARC
8
DEFAULT_255_1_388
10
4.926535
20
21.7933637
40
0.1977186
50
12.9497905
51
48.7550905
0
ARC
8
DEFAULT_255_1_388
10
4.9060272
20
21.7653373
40
0.2323321
50
49.509109
51
72.1832965
0
ARC
8
DEFAULT_255_1_388
10
4.865774
20
21.6458632
40
0.358397
50
71.9008458
51
84.3555134
0
ARC
8
DEFAULT_255_1_388
10
4.8476135
20
21.4926712
40
0.512641
50
84.019632
51
89.3326067
0
LINE
8
DEFAULT_255_1_388
10
6.2297134
20
22.7181898
11
6.2297134
21
21.844443
0
LINE
8
DEFAULT_255_1_388
10
6.2297134
20
21.844443
11
6.4122334
21
21.844443
0
LINE
8
DEFAULT_255_1_388
10
6.4122334
20
21.844443
11
6.4122334
21
21.7080048
0
LINE
8
DEFAULT_255_1_388
10
6.4122334
20
21.7080048
11
6.2297134
21
21.7080048
0
LINE
8
DEFAULT_255_1_388
10
6.2297134
20
21.7080048
11
6.2297134
21
21.4026
0
LINE
8
DEFAULT_255_1_388
10
6.2297134
20
21.4026
11
6.0616504
21
21.4026
0
LINE
8
DEFAULT_255_1_388
10
6.0616504
20
21.4026
11
6.0616504
21
21.7080048
0
LINE
8
DEFAULT_255_1_388
10
6.0616504
20
21.7080048
11
5.4625872
21
21.7080048
0
LINE
8
DEFAULT_255_1_388
10
5.4625872
20
21.7080048
11
5.4625872
21
21.8064933
0
LINE
8
DEFAULT_255_1_388
10
5.4625872
20
21.8064933
11
6.0517112
21
22.7181898
0
LINE
8
DEFAULT_255_1_388
10
6.0517112
20
22.7181898
11
6.2297134
21
22.7181898
0
LINE
8
DEFAULT_255_1_388
10
6.041772
20
22.4534455
11
5.6523357
21
21.844443
0
LINE
8
DEFAULT_255_1_388
10
5.6523357
20
21.844443
11
6.0616504
21
21.844443
0
LINE
8
DEFAULT_255_1_388
10
6.0616504
20
21.844443
11
6.0616504
21
22.489588
0
LINE
8
DEFAULT_255_1_388
10
6.0616504
20
22.489588
11
6.041772
21
22.4534455
0
ENDSEC
0
EOF