0
SECTION
2
HEADER
9
$MEASUREMENT
70
1
0
ENDSEC
0
SECTION
2
TABLES
0
TABLE
2
LTYPE
0
LTYPE
72
65
70
64
2
CONTINUOUS
3
______
73
0
40
0
0
ENDTAB
0
TABLE
2
LAYER
0
LAYER
2
DEFAULT_255_2_778
70
0
62
255
6
CONTINUOUS
0
LAYER
2
DEFAULT_255_1_234
70
0
62
255
6
CONTINUOUS
0
ENDTAB
0
ENDSEC
0
SECTION
2
ENTITIES
0
LINE
8
DEFAULT_255_2_778
10
3.5716002
20
18.3884998
11
19.4466002
21
18.3884998
0
LINE
8
DEFAULT_255_2_778
10
19.4466002
20
18.3884998
11
19.4466002
21
2.5134998
0
LINE
8
DEFAULT_255_2_778
10
19.4466002
20
2.5134998
11
3.5716002
21
2.5134998
0
LINE
8
DEFAULT_255_2_778
10
3.5716002
20
2.5134998
11
3.5716002
21
18.3884998
0
LINE
8
DEFAULT_255_2_778
10
11.5091
20
2.5135333
11
11.5091
21
-2.7781667
0
LINE
8
DEFAULT_255_2_778
10
7.5403417
20
15.7426499
11
6.2174417
21
15.7426499
0
LINE
8
DEFAULT_255_2_778
10
6.2174417
20
15.7426499
11
6.2174417
21
23.6801499
0
LINE
8
DEFAULT_255_2_778
10
8.8632834
20
17.0655499
11
10.1861834
21
15.7426499
0
LINE
8
DEFAULT_255_2_778
10
10.1861834
20
15.7426499
11
11.5090834
21
15.7426499
0
LINE
8
DEFAULT_255_2_778
10
11.5090834
20
15.7426499
11
11.5090834
21
23.6801499
0
LINE
8
DEFAULT_255_2_778
10
16.8008
20
18.3884333
11
16.8008
21
23.6801333
0
ARC
8
DEFAULT_255_2_778
10
10.183869
20
15.7447541
40
0.7914215
50
129.1312896
51
180.1450914
0
ARC
8
DEFAULT_255_2_778
10
10.1841342
20
15.7452412
40
0.7912112
50
89.854026
51
129.1684493
0
ARC
8
DEFAULT_255_2_778
10
10.1881934
20
15.7449278
40
0.7915249
50
39.4792447
51
90.147911
0
ARC
8
DEFAULT_255_2_778
10
10.1887932
20
15.7447744
40
0.7911595
50
359.8533901
51
39.5154338
0
ARC
8
DEFAULT_255_2_778
10
10.188469
20
15.7407018
40
0.7914836
50
309.4761667
51
0.1482649
0
ARC
8
DEFAULT_255_2_778
10
10.1881976
20
15.7402708
40
0.7913235
50
269.8517415
51
309.511178
0
ARC
8
DEFAULT_255_2_778
10
10.1841417
20
15.7403289
40
0.7913815
50
219.1282118
51
270.1454017
0
ARC
8
DEFAULT_255_2_778
10
10.1838244
20
15.7407114
40
0.7913769
50
179.8524075
51
219.1641908
0
LINE
8
DEFAULT_255_2_778
10
9.39245
20
15.74275
11
9.39245
21
15.74275
0
LINE
8
DEFAULT_255_2_778
10
8.8632667
20
13.0968333
11
14.1549667
21
13.0968333
0
LINE
8
DEFAULT_255_2_778
10
14.1549667
20
13.0968333
11
14.1549667
21
7.8051333
0
LINE
8
DEFAULT_255_2_778
10
14.1549667
20
7.8051333
11
8.8632667
21
7.8051333
0
LINE
8
DEFAULT_255_2_778
10
8.8632667
20
7.8051333
11
8.8632667
21
13.0968333
0
LINE
8
DEFAULT_255_2_778
10
7.5403417
20
10.451
11
8.8632417
21
10.451
0
LINE
8
DEFAULT_255_2_778
10
15.4778417
20
10.451
11
14.1549417
21
10.451
0
LINE
8
DEFAULT_255_2_778
10
10.1861834
20
10.451
11
12.8319834
21
10.451
0
LINE
8
DEFAULT_255_2_778
10
11.5091
20
10.4510583
11
11.5091
21
9.1281583
0
LINE
8
DEFAULT_255_2_778
10
10.1862417
20
11.7739583
11
11.5091417
21
10.4510583
0
LINE
8
DEFAULT_255_2_778
10
12.8320417
20
11.7739583
11
11.5091417
21
10.4510583
0
LINE
8
DEFAULT_255_2_778
10
3.5716169
20
6.4822749
11
16.8008169
21
2.5135749
0
LINE
8
DEFAULT_255_2_778
10
10.1861834
20
2.513575
11
11.5090834
21
3.307275
0
LINE
8
DEFAULT_255_2_778
10
11.5090834
20
3.307275
11
12.8319834
21
2.513575
0
LINE
8
DEFAULT_255_1_234
10
8.9951137
20
-0.6669567
11
8.9951137
21
-1.842
0
LINE
8
DEFAULT_255_1_234
10
8.9951137
20
-1.842
11
8.8457234
21
-1.842
0
LINE
8
DEFAULT_255_1_234
10
8.8457234
20
-1.842
11
8.8457234
21
-0.8516867
0
LINE
8
DEFAULT_255_1_234
10
8.8457234
20
-0.8516867
11
8.5461396
21
-0.9617215
0
LINE
8
DEFAULT_255_1_234
10
8.5461396
20
-0.9617215
11
8.5461396
21
-0.8267883
0
LINE
8
DEFAULT_255_1_234
10
8.5461396
20
-0.8267883
11
8.9718217
21
-0.6669567
0
LINE
8
DEFAULT_255_1_234
10
8.9718217
20
-0.6669567
11
8.9951137
21
-0.6669567
0
LINE
8
DEFAULT_255_1_234
10
4.3198119
20
21.5123792
11
4.3198119
21
21.3911
0
LINE
8
DEFAULT_255_1_234
10
4.3198119
20
21.3911
11
3.553584
21
21.3911
0
LINE
8
DEFAULT_255_1_234
10
3.553584
20
21.3911
11
3.553584
21
21.4979221
0
LINE
8
DEFAULT_255_1_234
10
3.553584
20
21.4979221
11
3.9583836
21
21.9476995
0
LINE
8
DEFAULT_255_1_234
10
3.6796823
20
22.2159595
11
3.5310952
21
22.2159595
0
LINE
8
DEFAULT_255_1_234
10
4.0459296
20
21.8521218
11
3.7326918
21
21.5123792
0
LINE
8
DEFAULT_255_1_234
10
3.7326918
20
21.5123792
11
4.3198119
21
21.5123792
0
ARC
8
DEFAULT_255_1_234
10
2.609367
20
23.1406527
40
1.8008286
50
318.5132453
51
320.7828378
0
ARC
8
DEFAULT_255_1_234
10
3.1380644
20
22.7103426
40
1.1191493
50
320.7372736
51
323.9737074
0
ARC
8
DEFAULT_255_1_234
10
3.5300501
20
22.4263361
40
0.6350923
50
323.8961724
51
328.6421089
0
ARC
8
DEFAULT_255_1_234
10
3.7347096
20
22.3001031
40
0.3946393
50
328.8299013
51
331.789948
0
ARC
8
DEFAULT_255_1_234
10
3.8344274
20
22.2486509
40
0.2824501
50
331.4255242
51
352.9364833
0
ARC
8
DEFAULT_255_1_234
10
3.8480775
20
22.2455976
40
0.2685315
50
353.2248685
51
0.0169286
0
ARC
8
DEFAULT_255_1_234
10
3.8690652
20
22.247895
40
0.2475536
50
359.4866256
51
15.9339782
0
ARC
8
DEFAULT_255_1_234
10
3.9197637
20
22.2615286
40
0.1950618
50
16.1714718
51
43.5284424
0
ARC
8
DEFAULT_255_1_234
10
3.9274946
20
22.2692573
40
0.184134
50
43.4415429
51
83.1661404
0
ARC
8
DEFAULT_255_1_234
10
3.9140864
20
22.1955771
40
0.258926
50
82.160215
51
90.1505798
0
ARC
8
DEFAULT_255_1_234
10
3.9109291
20
22.1418865
40
0.3126255
50
89.5460705
51
102.5418777
0
ARC
8
DEFAULT_255_1_234
10
3.8866377
20
22.2449665
40
0.2067346
50
102.1739365
51
129.2061916
0
ARC
8
DEFAULT_255_1_234
10
3.8787449
20
22.2574094
40
0.1921118
50
129.7279328
51
135.7542026
0
ARC
8
DEFAULT_255_1_234
10
3.8908977
20
22.2477045
40
0.2075944
50
136.175737
51
166.3674722
0
ARC
8
DEFAULT_255_1_234
10
3.9915896
20
22.2207182
40
0.3118201
50
165.9092917
51
178.8683903
0
ARC
8
DEFAULT_255_1_234
10
4.0780757
20
22.2160179
40
0.3983935
50
178.438168
51
180.0083905
0
ARC
8
DEFAULT_255_1_234
10
3.9379359
20
22.2199231
40
0.4068601
50
163.2878735
51
180.5581814
0
ARC
8
DEFAULT_255_1_234
10
3.8577621
20
22.241984
40
0.3237344
50
133.454115
51
162.9470031
0
ARC
8
DEFAULT_255_1_234
10
3.8756162
20
22.223
40
0.349795
50
100.7869394
51
133.4384016
0
ARC
8
DEFAULT_255_1_234
10
3.9103934
20
22.0681319
40
0.5084616
50
89.6605301
51
101.3704185
0
ARC
8
DEFAULT_255_1_234
10
3.9170273
20
22.0742496
40
0.502348
50
78.2171172
51
90.4130393
0
ARC
8
DEFAULT_255_1_234
10
3.9525351
20
22.2366637
40
0.3361092
50
55.9268222
51
78.4888551
0
ARC
8
DEFAULT_255_1_234
10
3.9721791
20
22.2705324
40
0.2970617
50
47.9292255
51
55.4054003
0
ARC
8
DEFAULT_255_1_234
10
3.9823352
20
22.2808502
40
0.2825983
50
4.3347696
51
48.0560701
0
ARC
8
DEFAULT_255_1_234
10
3.8727745
20
22.2638601
40
0.393225
50
359.925209
51
5.5967654
0
ARC
8
DEFAULT_255_1_234
10
3.9156637
20
22.2694816
40
0.3503892
50
337.8914096
51
358.9967724
0
ARC
8
DEFAULT_255_1_234
10
3.6443049
20
22.3741706
40
0.6412172
50
326.9135351
51
338.3505194
0
ARC
8
DEFAULT_255_1_234
10
3.2457353
20
22.6296284
40
1.1146189
50
319.6472867
51
327.095818
0
ARC
8
DEFAULT_255_1_234
10
2.8624356
20
22.9458
40
1.6114559
50
317.2586784
51
319.9046139
0
LINE
8
DEFAULT_255_1_234
10
4.6932877
20
21.9268169
11
4.6932877
21
22.0480962
0
LINE
8
DEFAULT_255_1_234
10
4.6932877
20
22.0480962
11
4.8049289
21
22.0480962
0
LINE
8
DEFAULT_255_1_234
10
4.6145767
20
22.2537087
11
4.4659895
21
22.2537087
0
LINE
8
DEFAULT_255_1_234
10
4.4555482
20
21.6995188
11
4.6049386
21
21.6995188
0
LINE
8
DEFAULT_255_1_234
10
4.8049289
20
21.9268169
11
4.6932877
21
21.9268169
0
ARC
8
DEFAULT_255_1_234
10
4.8020155
20
22.3873713
40
0.3392876
50
270.4919872
51
281.8951556
0
ARC
8
DEFAULT_255_1_234
10
4.8261417
20
22.2771702
40
0.2264817
50
281.6691735
51
301.2943132
0
ARC
8
DEFAULT_255_1_234
10
4.8431627
20
22.2460304
40
0.1910381
50
301.7833094
51
311.7545298
0
ARC
8
DEFAULT_255_1_234
10
4.8523203
20
22.2358748
40
0.1773635
50
311.7323931
51
354.2802411
0
ARC
8
DEFAULT_255_1_234
10
4.7796828
20
22.2483722
40
0.2509385
50
353.0937916
51
0.1181479
0
ARC
8
DEFAULT_255_1_234
10
4.7335613
20
22.2531386
40
0.2970898
50
359.1805295
51
15.0453146
0
ARC
8
DEFAULT_255_1_234
10
4.868145
20
22.2923992
40
0.1569564
50
13.9577229
51
77.6713066
0
ARC
8
DEFAULT_255_1_234
10
4.8294979
20
22.1538949
40
0.3006298
50
76.1116566
51
90.7026153
0
ARC
8
DEFAULT_255_1_234
10
4.8235817
20
22.1812545
40
0.2732568
50
89.5324876
51
103.531937
0
ARC
8
DEFAULT_255_1_234
10
4.8035261
20
22.2611884
40
0.1908508
50
103.2931773
51
133.5619022
0
ARC
8
DEFAULT_255_1_234
10
4.799075
20
22.2671375
40
0.1834746
50
133.8349307
51
173.5344437
0
ARC
8
DEFAULT_255_1_234
10
4.8713793
20
22.2543213
40
0.2568033
50
172.5096846
51
180.1366907
0
ARC
8
DEFAULT_255_1_234
10
4.7762687
20
22.2577622
40
0.3103056
50
155.3484492
51
180.7484736
0
ARC
8
DEFAULT_255_1_234
10
4.7713776
20
22.2548846
40
0.3070957
50
131.5744599
51
154.4798489
0
ARC
8
DEFAULT_255_1_234
10
4.8026923
20
22.223231
40
0.3515643
50
96.9875458
51
131.9690667
0
ARC
8
DEFAULT_255_1_234
10
4.8246403
20
22.0986636
40
0.4779224
50
89.8596053
51
97.7825159
0
ARC
8
DEFAULT_255_1_234
10
4.8294466
20
22.0724616
40
0.5041361
50
78.3655447
51
90.4131539
0
ARC
8
DEFAULT_255_1_234
10
4.8652384
20
22.2383887
40
0.3344039
50
56.6229102
51
78.638727
0
ARC
8
DEFAULT_255_1_234
10
4.8867328
20
22.2759805
40
0.2912001
50
47.0253525
51
56.0854072
0
ARC
8
DEFAULT_255_1_234
10
4.8887108
20
22.2799223
40
0.2869704
50
10.9208013
51
46.7778124
0
ARC
8
DEFAULT_255_1_234
10
4.7523174
20
22.2483857
40
0.426899
50
359.6364486
51
11.6087304
0
ARC
8
DEFAULT_255_1_234
10
4.9358018
20
22.2468752
40
0.243409
50
332.3549906
51
359.7179418
0
ARC
8
DEFAULT_255_1_234
10
4.870762
20
22.2777142
40
0.3153459
50
325.2333722
51
332.8745602
0
ARC
8
DEFAULT_255_1_234
10
4.8860244
20
22.2670828
40
0.2967456
50
292.9802137
51
325.2392345
0
ARC
8
DEFAULT_255_1_234
10
4.8585617
20
22.3204863
40
0.3566604
50
292.5402179
51
293.6924929
0
ARC
8
DEFAULT_255_1_234
10
4.8978213
20
21.6750091
40
0.3307468
50
57.6435486
51
72.8625112
0
ARC
8
DEFAULT_255_1_234
10
4.9332713
20
21.7324549
40
0.2632492
50
36.7248896
51
57.4697979
0
ARC
8
DEFAULT_255_1_234
10
4.9321346
20
21.733722
40
0.2634081
50
8.0545065
51
36.356114
0
ARC
8
DEFAULT_255_1_234
10
4.8458531
20
21.7182174
40
0.3510261
50
359.8320645
51
8.5869982
0
ARC
8
DEFAULT_255_1_234
10
4.8083307
20
21.7134101
40
0.3885653
50
343.9829931
51
0.5571613
0
ARC
8
DEFAULT_255_1_234
10
4.8969504
20
21.6891438
40
0.2966924
50
311.6359546
51
343.7651759
0
ARC
8
DEFAULT_255_1_234
10
4.8591074
20
21.7318102
40
0.3537231
50
279.7829875
51
311.6255694
0
ARC
8
DEFAULT_255_1_234
10
4.828985
20
21.875528
40
0.5004971
50
269.7286406
51
280.3856417
0
ARC
8
DEFAULT_255_1_234
10
4.8227922
20
21.8713996
40
0.4963778
50
256.6828919
51
270.4412052
0
ARC
8
DEFAULT_255_1_234
10
4.7889218
20
21.7329394
40
0.3538406
50
229.4223008
51
256.8556159
0
ARC
8
DEFAULT_255_1_234
10
4.7474611
20
21.6862736
40
0.2914296
50
181.818294
51
229.6455059
0
ARC
8
DEFAULT_255_1_234
10
4.8514567
20
21.6993496
40
0.3959084
50
179.9755256
51
183.2323064
0
ARC
8
DEFAULT_255_1_234
10
4.8342313
20
21.6973037
40
0.2293034
50
179.4465117
51
196.2869258
0
ARC
8
DEFAULT_255_1_234
10
4.7854721
20
21.6839651
40
0.1787621
50
196.5661473
51
227.705904
0
ARC
8
DEFAULT_255_1_234
10
4.8018816
20
21.7023155
40
0.2033784
50
227.7652068
51
257.8762805
0
ARC
8
DEFAULT_255_1_234
10
4.8243786
20
21.7966156
40
0.3003081
50
257.4584385
51
270.426602
0
ARC
8
DEFAULT_255_1_234
10
4.8289352
20
21.8255996
40
0.329292
50
269.5962073
51
280.8789248
0
ARC
8
DEFAULT_255_1_234
10
4.8518881
20
21.7109685
40
0.2123908
50
280.6346389
51
299.8595945
0
ARC
8
DEFAULT_255_1_234
10
4.8709788
20
21.6747212
40
0.171457
50
300.3576302
51
314.5517981
0
ARC
8
DEFAULT_255_1_234
10
4.8626848
20
21.6807919
40
0.1816095
50
315.0728369
51
345.0431014
0
ARC
8
DEFAULT_255_1_234
10
4.7703662
20
21.7076841
40
0.2777492
50
344.5986631
51
357.9269593
0
ARC
8
DEFAULT_255_1_234
10
4.6807989
20
21.7138276
40
0.3674917
50
357.4748886
51
0.0231117
0
ARC
8
DEFAULT_255_1_234
10
4.7831098
20
21.7162679
40
0.2651907
50
359.5047933
51
13.4239635
0
ARC
8
DEFAULT_255_1_234
10
4.8697741
20
21.7384478
40
0.1757509
50
12.9498199
51
48.7551375
0
ARC
8
DEFAULT_255_1_234
10
4.8515475
20
21.71354
40
0.2065134
50
49.5088623
51
72.1836453
0
ARC
8
DEFAULT_255_1_234
10
4.8157628
20
21.6073291
40
0.3185836
50
71.9010081
51
84.3554254
0
ARC
8
DEFAULT_255_1_234
10
4.799626
20
21.4712326
40
0.4556151
50
84.0193428
51
89.333121
0
LINE
8
DEFAULT_255_1_234
10
6.0281626
20
22.5605211
11
6.0281626
21
21.783852
0
LINE
8
DEFAULT_255_1_234
10
6.0281626
20
21.783852
11
6.1904037
21
21.783852
0
LINE
8
DEFAULT_255_1_234
10
6.1904037
20
21.783852
11
6.1904037
21
21.6625728
0
LINE
8
DEFAULT_255_1_234
10
6.1904037
20
21.6625728
11
6.0281626
21
21.6625728
0
LINE
8
DEFAULT_255_1_234
10
6.0281626
20
21.6625728
11
6.0281626
21
21.3911
0
LINE
8
DEFAULT_255_1_234
10
6.0281626
20
21.3911
11
5.8787723
21
21.3911
0
LINE
8
DEFAULT_255_1_234
10
5.8787723
20
21.3911
11
5.8787723
21
21.6625728
0
LINE
8
DEFAULT_255_1_234
10
5.8787723
20
21.6625728
11
5.346268
21
21.6625728
0
LINE
8
DEFAULT_255_1_234
10
5.346268
20
21.6625728
11
5.346268
21
21.7501187
0
LINE
8
DEFAULT_255_1_234
10
5.346268
20
21.7501187
11
5.8699374
21
22.5605211
0
LINE
8
DEFAULT_255_1_234
10
5.8699374
20
22.5605211
11
6.0281626
21
22.5605211
0
LINE
8
DEFAULT_255_1_234
10
5.8611024
20
22.3251912
11
5.5149345
21
21.783852
0
LINE
8
DEFAULT_255_1_234
10
5.5149345
20
21.783852
11
5.8787723
21
21.783852
0
LINE
8
DEFAULT_255_1_234
10
5.8787723
20
21.783852
11
5.8787723
21
22.3573181
0
LINE
8
DEFAULT_255_1_234
10
5.8787723
20
22.3573181
11
5.8611024
21
22.3251912
0
ENDSEC
0
EOF