0
SECTION
2
HEADER
9
$MEASUREMENT
70
1
0
ENDSEC
0
SECTION
2
TABLES
0
TABLE
2
LTYPE
0
LTYPE
72
65
70
64
2
CONTINUOUS
3
______
73
0
40
0
0
ENDTAB
0
TABLE
2
LAYER
0
LAYER
2
DEFAULT_255_2_778
70
0
62
255
6
CONTINUOUS
0
LAYER
2
DEFAULT_255_1_234
70
0
62
255
6
CONTINUOUS
0
ENDTAB
0
ENDSEC
0
SECTION
2
ENTITIES
0
ARC
8
DEFAULT_255_2_778
10
11.9805874
20
6.7547891
40
3.9108533
50
180.0000059
51
180.1158894
0
ARC
8
DEFAULT_255_2_778
10
12.0301953
20
6.7548944
40
3.9604611
50
134.9976348
51
180.0015291
0
ARC
8
DEFAULT_255_2_778
10
12.0306009
20
6.7547047
40
3.960882
50
90.0009666
51
134.9998433
0
ARC
8
DEFAULT_255_2_778
10
12.0305337
20
6.8066592
40
3.9089276
50
89.8840812
51
89.9999941
0
ARC
8
DEFAULT_255_2_778
10
12.0463512
20
6.8058935
40
3.9096934
50
90.0000059
51
90.115907
0
ARC
8
DEFAULT_255_2_778
10
12.0463594
20
6.7546471
40
3.9609397
50
45.0005019
51
90.0001235
0
ARC
8
DEFAULT_255_2_778
10
12.0467889
20
6.7548944
40
3.960461
50
359.9984709
51
45.0023652
0
ARC
8
DEFAULT_255_2_778
10
12.0963968
20
6.7547891
40
3.9108532
50
359.8841106
51
359.9999941
0
LINE
8
DEFAULT_255_2_778
10
16.0072421
20
6.7468789
11
12.0384421
21
6.7468789
0
LINE
8
DEFAULT_255_2_778
10
12.0384421
20
6.7468789
11
8.0697421
21
6.7468789
0
LINE
8
DEFAULT_255_2_778
10
10.7156
20
6.7467999
11
10.7156
21
-2.7782001
0
LINE
8
DEFAULT_255_2_778
10
13.3615
20
6.7467999
11
13.3615
21
-2.7782001
0
LINE
8
DEFAULT_255_2_778
10
11.2448
20
10.7156667
11
11.2448
21
11.7739667
0
LINE
8
DEFAULT_255_2_778
10
12.8323
20
10.7156667
11
12.8323
21
11.7739667
0
LINE
8
DEFAULT_255_2_778
10
9.1280834
20
15.7426749
11
9.1280834
21
11.7739749
0
LINE
8
DEFAULT_255_2_778
10
9.1280834
20
11.7739749
11
14.9488834
21
11.7739749
0
LINE
8
DEFAULT_255_2_778
10
14.9488834
20
11.7739749
11
14.9488834
21
15.7426749
0
LINE
8
DEFAULT_255_2_778
10
9.1281584
20
12.8322667
11
7.2760584
21
13.3614667
0
LINE
8
DEFAULT_255_2_778
10
7.2760584
20
13.3614667
11
7.2760584
21
12.3031667
0
LINE
8
DEFAULT_255_2_778
10
7.2760584
20
12.3031667
11
9.1281584
21
12.8322667
0
LINE
8
DEFAULT_255_2_778
10
14.9489584
20
12.8322667
11
16.8010584
21
12.3031667
0
LINE
8
DEFAULT_255_2_778
10
16.8010584
20
12.3031667
11
16.8010584
21
13.3614667
0
LINE
8
DEFAULT_255_2_778
10
16.8010584
20
13.3614667
11
14.9489584
21
12.8322667
0
LINE
8
DEFAULT_255_2_778
10
14.9489584
20
14.4197667
11
13.0968584
21
14.9489667
0
LINE
8
DEFAULT_255_2_778
10
13.0968584
20
14.9489667
11
13.0968584
21
13.8906667
0
LINE
8
DEFAULT_255_2_778
10
13.0968584
20
13.8906667
11
14.9489584
21
14.4197667
0
LINE
8
DEFAULT_255_2_778
10
9.1281584
20
14.4197667
11
10.9802584
21
13.8906667
0
LINE
8
DEFAULT_255_2_778
10
10.9802584
20
13.8906667
11
10.9802584
21
14.9489667
0
LINE
8
DEFAULT_255_2_778
10
10.9802584
20
14.9489667
11
9.1281584
21
14.4197667
0
LINE
8
DEFAULT_255_2_778
10
18.6531502
20
12.8322666
11
4.3656502
21
12.8322666
0
LINE
8
DEFAULT_255_2_778
10
4.3656502
20
12.8322666
11
4.3656502
21
5.4239666
0
LINE
8
DEFAULT_255_2_778
10
4.3656502
20
5.4239666
11
10.7156502
21
5.4239666
0
LINE
8
DEFAULT_255_2_778
10
13.3613835
20
3.8364665
11
2.7780835
21
3.8364665
0
LINE
8
DEFAULT_255_2_778
10
2.7780835
20
3.8364665
11
2.7780835
21
14.4197665
0
LINE
8
DEFAULT_255_2_778
10
2.7780835
20
14.4197665
11
14.9488835
21
14.4197665
0
LINE
8
DEFAULT_255_2_778
10
13.36145
20
7.540575
11
12.56775
21
6.746875
0
LINE
8
DEFAULT_255_2_778
10
12.56775
20
6.746875
11
14.15525
21
6.746875
0
LINE
8
DEFAULT_255_2_778
10
14.15525
20
6.746875
11
13.36145
21
7.540575
0
LINE
8
DEFAULT_255_2_778
10
10.71555
20
7.540575
11
9.92185
21
6.746875
0
LINE
8
DEFAULT_255_2_778
10
9.92185
20
6.746875
11
11.50935
21
6.746875
0
LINE
8
DEFAULT_255_2_778
10
11.50935
20
6.746875
11
10.71555
21
7.540575
0
LINE
8
DEFAULT_255_1_234
10
8.2692137
20
-0.6674567
11
8.2692137
21
-1.8425
0
LINE
8
DEFAULT_255_1_234
10
8.2692137
20
-1.8425
11
8.1198234
21
-1.8425
0
LINE
8
DEFAULT_255_1_234
10
8.1198234
20
-1.8425
11
8.1198234
21
-0.8521867
0
LINE
8
DEFAULT_255_1_234
10
8.1198234
20
-0.8521867
11
7.8202396
21
-0.9622215
0
LINE
8
DEFAULT_255_1_234
10
7.8202396
20
-0.9622215
11
7.8202396
21
-0.8272883
0
LINE
8
DEFAULT_255_1_234
10
7.8202396
20
-0.8272883
11
8.2459217
21
-0.6674567
0
LINE
8
DEFAULT_255_1_234
10
8.2459217
20
-0.6674567
11
8.2692137
21
-0.6674567
0
LINE
8
DEFAULT_255_1_234
10
9.4707618
20
-1.7212208
11
9.4707618
21
-1.8425
0
LINE
8
DEFAULT_255_1_234
10
9.4707618
20
-1.8425
11
8.7045339
21
-1.8425
0
LINE
8
DEFAULT_255_1_234
10
8.7045339
20
-1.8425
11
8.7045339
21
-1.7356779
0
LINE
8
DEFAULT_255_1_234
10
8.7045339
20
-1.7356779
11
9.1093335
21
-1.2859005
0
LINE
8
DEFAULT_255_1_234
10
8.8306322
20
-1.0176405
11
8.6820451
21
-1.0176405
0
LINE
8
DEFAULT_255_1_234
10
9.1968795
20
-1.3814782
11
8.8836417
21
-1.7212208
0
LINE
8
DEFAULT_255_1_234
10
8.8836417
20
-1.7212208
11
9.4707618
21
-1.7212208
0
ARC
8
DEFAULT_255_1_234
10
7.7603169
20
-0.0929473
40
1.8008286
50
318.5132453
51
320.7828378
0
ARC
8
DEFAULT_255_1_234
10
8.2890143
20
-0.5232574
40
1.1191493
50
320.7372736
51
323.9737074
0
ARC
8
DEFAULT_255_1_234
10
8.681
20
-0.8072639
40
0.6350923
50
323.8961724
51
328.6421089
0
ARC
8
DEFAULT_255_1_234
10
8.8856595
20
-0.9334969
40
0.3946393
50
328.8299013
51
331.789948
0
ARC
8
DEFAULT_255_1_234
10
8.9853774
20
-0.9849491
40
0.2824501
50
331.4255242
51
352.9364833
0
ARC
8
DEFAULT_255_1_234
10
8.9990274
20
-0.9880024
40
0.2685315
50
353.2248685
51
0.0169286
0
ARC
8
DEFAULT_255_1_234
10
9.0200151
20
-0.985705
40
0.2475536
50
359.4866256
51
15.9339782
0
ARC
8
DEFAULT_255_1_234
10
9.0707136
20
-0.9720714
40
0.1950618
50
16.1714718
51
43.5284424
0
ARC
8
DEFAULT_255_1_234
10
9.0784445
20
-0.9643427
40
0.184134
50
43.4415429
51
83.1661404
0
ARC
8
DEFAULT_255_1_234
10
9.0650363
20
-1.0380229
40
0.258926
50
82.160215
51
90.1505798
0
ARC
8
DEFAULT_255_1_234
10
9.061879
20
-1.0917135
40
0.3126255
50
89.5460705
51
102.5418777
0
ARC
8
DEFAULT_255_1_234
10
9.0375876
20
-0.9886335
40
0.2067346
50
102.1739365
51
129.2061916
0
ARC
8
DEFAULT_255_1_234
10
9.0296948
20
-0.9761906
40
0.1921118
50
129.7279328
51
135.7542026
0
ARC
8
DEFAULT_255_1_234
10
9.0418476
20
-0.9858955
40
0.2075944
50
136.175737
51
166.3674722
0
ARC
8
DEFAULT_255_1_234
10
9.1425395
20
-1.0128818
40
0.3118201
50
165.9092917
51
178.8683903
0
ARC
8
DEFAULT_255_1_234
10
9.2290256
20
-1.0175821
40
0.3983935
50
178.438168
51
180.0083905
0
ARC
8
DEFAULT_255_1_234
10
9.0888859
20
-1.0136769
40
0.4068601
50
163.2878735
51
180.5581814
0
ARC
8
DEFAULT_255_1_234
10
9.008712
20
-0.991616
40
0.3237344
50
133.454115
51
162.9470031
0
ARC
8
DEFAULT_255_1_234
10
9.0265661
20
-1.0106
40
0.349795
50
100.7869394
51
133.4384016
0
ARC
8
DEFAULT_255_1_234
10
9.0613433
20
-1.1654681
40
0.5084616
50
89.6605301
51
101.3704185
0
ARC
8
DEFAULT_255_1_234
10
9.0679772
20
-1.1593504
40
0.502348
50
78.2171172
51
90.4130393
0
ARC
8
DEFAULT_255_1_234
10
9.103485
20
-0.9969363
40
0.3361092
50
55.9268222
51
78.4888551
0
ARC
8
DEFAULT_255_1_234
10
9.123129
20
-0.9630676
40
0.2970617
50
47.9292255
51
55.4054003
0
ARC
8
DEFAULT_255_1_234
10
9.1332851
20
-0.9527498
40
0.2825983
50
4.3347696
51
48.0560701
0
ARC
8
DEFAULT_255_1_234
10
9.0237244
20
-0.9697399
40
0.393225
50
359.925209
51
5.5967654
0
ARC
8
DEFAULT_255_1_234
10
9.0666136
20
-0.9641184
40
0.3503892
50
337.8914096
51
358.9967724
0
ARC
8
DEFAULT_255_1_234
10
8.7952548
20
-0.8594294
40
0.6412172
50
326.9135351
51
338.3505194
0
ARC
8
DEFAULT_255_1_234
10
8.3966852
20
-0.6039716
40
1.1146189
50
319.6472867
51
327.095818
0
ARC
8
DEFAULT_255_1_234
10
8.0133855
20
-0.2878
40
1.6114559
50
317.2586784
51
319.9046139
0
ENDSEC
0
EOF