0
SECTION
2
HEADER
9
$MEASUREMENT
70
1
0
ENDSEC
0
SECTION
2
TABLES
0
TABLE
2
LTYPE
0
LTYPE
72
65
70
64
2
CONTINUOUS
3
______
73
0
40
0
0
ENDTAB
0
TABLE
2
LAYER
0
LAYER
2
DEFAULT_255_1_234
70
0
62
255
6
CONTINUOUS
0
LAYER
2
DEFAULT_255_2_778
70
0
62
255
6
CONTINUOUS
0
ENDTAB
0
ENDSEC
0
SECTION
2
ENTITIES
0
LINE
8
DEFAULT_255_1_234
10
4.4807137
20
1.9789433
11
4.4807137
21
0.8039
0
LINE
8
DEFAULT_255_1_234
10
4.4807137
20
0.8039
11
4.3313234
21
0.8039
0
LINE
8
DEFAULT_255_1_234
10
4.3313234
20
0.8039
11
4.3313234
21
1.7942133
0
LINE
8
DEFAULT_255_1_234
10
4.3313234
20
1.7942133
11
4.0317396
21
1.6841785
0
LINE
8
DEFAULT_255_1_234
10
4.0317396
20
1.6841785
11
4.0317396
21
1.8191117
0
LINE
8
DEFAULT_255_1_234
10
4.0317396
20
1.8191117
11
4.4574217
21
1.9789433
0
LINE
8
DEFAULT_255_1_234
10
4.4574217
20
1.9789433
11
4.4807137
21
1.9789433
0
LINE
8
DEFAULT_255_1_234
10
24.3476119
20
0.9251792
11
24.3476119
21
0.8039
0
LINE
8
DEFAULT_255_1_234
10
24.3476119
20
0.8039
11
23.581384
21
0.8039
0
LINE
8
DEFAULT_255_1_234
10
23.581384
20
0.8039
11
23.581384
21
0.9107221
0
LINE
8
DEFAULT_255_1_234
10
23.581384
20
0.9107221
11
23.9861836
21
1.3604995
0
LINE
8
DEFAULT_255_1_234
10
23.7074823
20
1.6287595
11
23.5588952
21
1.6287595
0
LINE
8
DEFAULT_255_1_234
10
24.0737296
20
1.2649218
11
23.7604918
21
0.9251792
0
LINE
8
DEFAULT_255_1_234
10
23.7604918
20
0.9251792
11
24.3476119
21
0.9251792
0
ARC
8
DEFAULT_255_1_234
10
22.637167
20
2.5534527
40
1.8008286
50
318.5132453
51
320.7828378
0
ARC
8
DEFAULT_255_1_234
10
23.1658644
20
2.1231426
40
1.1191493
50
320.7372736
51
323.9737074
0
ARC
8
DEFAULT_255_1_234
10
23.5578501
20
1.8391361
40
0.6350923
50
323.8961724
51
328.6421089
0
ARC
8
DEFAULT_255_1_234
10
23.7625096
20
1.7129031
40
0.3946393
50
328.8299013
51
331.789948
0
ARC
8
DEFAULT_255_1_234
10
23.8622274
20
1.6614509
40
0.2824501
50
331.4255242
51
352.9364833
0
ARC
8
DEFAULT_255_1_234
10
23.8758775
20
1.6583976
40
0.2685315
50
353.2248685
51
0.0169286
0
ARC
8
DEFAULT_255_1_234
10
23.8968652
20
1.660695
40
0.2475536
50
359.4866256
51
15.9339782
0
ARC
8
DEFAULT_255_1_234
10
23.9475637
20
1.6743286
40
0.1950618
50
16.1714718
51
43.5284424
0
ARC
8
DEFAULT_255_1_234
10
23.9552946
20
1.6820573
40
0.184134
50
43.4415429
51
83.1661404
0
ARC
8
DEFAULT_255_1_234
10
23.9418864
20
1.6083771
40
0.258926
50
82.160215
51
90.1505798
0
ARC
8
DEFAULT_255_1_234
10
23.9387291
20
1.5546865
40
0.3126255
50
89.5460705
51
102.5418777
0
ARC
8
DEFAULT_255_1_234
10
23.9144377
20
1.6577665
40
0.2067346
50
102.1739365
51
129.2061916
0
ARC
8
DEFAULT_255_1_234
10
23.9065449
20
1.6702094
40
0.1921118
50
129.7279328
51
135.7542026
0
ARC
8
DEFAULT_255_1_234
10
23.9186977
20
1.6605045
40
0.2075944
50
136.175737
51
166.3674722
0
ARC
8
DEFAULT_255_1_234
10
24.0193896
20
1.6335182
40
0.3118201
50
165.9092917
51
178.8683903
0
ARC
8
DEFAULT_255_1_234
10
24.1058757
20
1.6288179
40
0.3983935
50
178.438168
51
180.0083905
0
ARC
8
DEFAULT_255_1_234
10
23.9657359
20
1.6327231
40
0.4068601
50
163.2878735
51
180.5581814
0
ARC
8
DEFAULT_255_1_234
10
23.8855621
20
1.654784
40
0.3237344
50
133.454115
51
162.9470031
0
ARC
8
DEFAULT_255_1_234
10
23.9034162
20
1.6358
40
0.349795
50
100.7869394
51
133.4384016
0
ARC
8
DEFAULT_255_1_234
10
23.9381934
20
1.4809319
40
0.5084616
50
89.6605301
51
101.3704185
0
ARC
8
DEFAULT_255_1_234
10
23.9448273
20
1.4870496
40
0.502348
50
78.2171172
51
90.4130393
0
ARC
8
DEFAULT_255_1_234
10
23.9803351
20
1.6494637
40
0.3361092
50
55.9268222
51
78.4888551
0
ARC
8
DEFAULT_255_1_234
10
23.9999791
20
1.6833324
40
0.2970617
50
47.9292255
51
55.4054003
0
ARC
8
DEFAULT_255_1_234
10
24.0101352
20
1.6936502
40
0.2825983
50
4.3347696
51
48.0560701
0
ARC
8
DEFAULT_255_1_234
10
23.9005745
20
1.6766601
40
0.393225
50
359.925209
51
5.5967654
0
ARC
8
DEFAULT_255_1_234
10
23.9434637
20
1.6822816
40
0.3503892
50
337.8914096
51
358.9967724
0
ARC
8
DEFAULT_255_1_234
10
23.6721049
20
1.7869706
40
0.6412172
50
326.9135351
51
338.3505194
0
ARC
8
DEFAULT_255_1_234
10
23.2735353
20
2.0424284
40
1.1146189
50
319.6472867
51
327.095818
0
ARC
8
DEFAULT_255_1_234
10
22.8902356
20
2.3586
40
1.6114559
50
317.2586784
51
319.9046139
0
LINE
8
DEFAULT_255_1_234
10
7.9216378
20
6.0518169
11
7.9216378
21
6.1730962
0
LINE
8
DEFAULT_255_1_234
10
7.9216378
20
6.1730962
11
8.033279
21
6.1730962
0
LINE
8
DEFAULT_255_1_234
10
7.8429268
20
6.3787087
11
7.6943396
21
6.3787087
0
LINE
8
DEFAULT_255_1_234
10
7.6838983
20
5.8245188
11
7.8332887
21
5.8245188
0
LINE
8
DEFAULT_255_1_234
10
8.033279
20
6.0518169
11
7.9216378
21
6.0518169
0
ARC
8
DEFAULT_255_1_234
10
8.0303656
20
6.5123713
40
0.3392876
50
270.4919872
51
281.8951556
0
ARC
8
DEFAULT_255_1_234
10
8.0544918
20
6.4021702
40
0.2264817
50
281.6691735
51
301.2943132
0
ARC
8
DEFAULT_255_1_234
10
8.0715128
20
6.3710304
40
0.1910381
50
301.7833094
51
311.7545298
0
ARC
8
DEFAULT_255_1_234
10
8.0806704
20
6.3608748
40
0.1773635
50
311.7323931
51
354.2802411
0
ARC
8
DEFAULT_255_1_234
10
8.0080329
20
6.3733722
40
0.2509385
50
353.0937916
51
0.1181479
0
ARC
8
DEFAULT_255_1_234
10
7.9619114
20
6.3781386
40
0.2970898
50
359.1805295
51
15.0453146
0
ARC
8
DEFAULT_255_1_234
10
8.0964951
20
6.4173992
40
0.1569564
50
13.9577229
51
77.6713066
0
ARC
8
DEFAULT_255_1_234
10
8.057848
20
6.2788949
40
0.3006298
50
76.1116566
51
90.7026153
0
ARC
8
DEFAULT_255_1_234
10
8.0519318
20
6.3062545
40
0.2732568
50
89.5324876
51
103.531937
0
ARC
8
DEFAULT_255_1_234
10
8.0318762
20
6.3861884
40
0.1908508
50
103.2931773
51
133.5619022
0
ARC
8
DEFAULT_255_1_234
10
8.0274251
20
6.3921375
40
0.1834746
50
133.8349307
51
173.5344437
0
ARC
8
DEFAULT_255_1_234
10
8.0997294
20
6.3793213
40
0.2568033
50
172.5096846
51
180.1366907
0
ARC
8
DEFAULT_255_1_234
10
8.0046188
20
6.3827622
40
0.3103056
50
155.3484492
51
180.7484736
0
ARC
8
DEFAULT_255_1_234
10
7.9997277
20
6.3798846
40
0.3070957
50
131.5744599
51
154.4798489
0
ARC
8
DEFAULT_255_1_234
10
8.0310424
20
6.348231
40
0.3515643
50
96.9875458
51
131.9690667
0
ARC
8
DEFAULT_255_1_234
10
8.0529904
20
6.2236636
40
0.4779224
50
89.8596053
51
97.7825159
0
ARC
8
DEFAULT_255_1_234
10
8.0577967
20
6.1974616
40
0.5041361
50
78.3655447
51
90.4131539
0
ARC
8
DEFAULT_255_1_234
10
8.0935885
20
6.3633887
40
0.3344039
50
56.6229102
51
78.638727
0
ARC
8
DEFAULT_255_1_234
10
8.1150829
20
6.4009805
40
0.2912001
50
47.0253525
51
56.0854072
0
ARC
8
DEFAULT_255_1_234
10
8.1170609
20
6.4049223
40
0.2869704
50
10.9208013
51
46.7778124
0
ARC
8
DEFAULT_255_1_234
10
7.9806675
20
6.3733857
40
0.426899
50
359.6364486
51
11.6087304
0
ARC
8
DEFAULT_255_1_234
10
8.1641519
20
6.3718752
40
0.243409
50
332.3549906
51
359.7179418
0
ARC
8
DEFAULT_255_1_234
10
8.0991121
20
6.4027142
40
0.3153459
50
325.2333722
51
332.8745602
0
ARC
8
DEFAULT_255_1_234
10
8.1143744
20
6.3920828
40
0.2967456
50
292.9802137
51
325.2392345
0
ARC
8
DEFAULT_255_1_234
10
8.0869118
20
6.4454863
40
0.3566604
50
292.5402179
51
293.6924929
0
ARC
8
DEFAULT_255_1_234
10
8.1261714
20
5.8000091
40
0.3307468
50
57.6435486
51
72.8625112
0
ARC
8
DEFAULT_255_1_234
10
8.1616214
20
5.8574549
40
0.2632492
50
36.7248896
51
57.4697979
0
ARC
8
DEFAULT_255_1_234
10
8.1604847
20
5.858722
40
0.2634081
50
8.0545065
51
36.356114
0
ARC
8
DEFAULT_255_1_234
10
8.0742032
20
5.8432174
40
0.3510261
50
359.8320645
51
8.5869982
0
ARC
8
DEFAULT_255_1_234
10
8.0366808
20
5.8384101
40
0.3885653
50
343.9829931
51
0.5571613
0
ARC
8
DEFAULT_255_1_234
10
8.1253005
20
5.8141438
40
0.2966924
50
311.6359546
51
343.7651759
0
ARC
8
DEFAULT_255_1_234
10
8.0874574
20
5.8568102
40
0.3537231
50
279.7829875
51
311.6255694
0
ARC
8
DEFAULT_255_1_234
10
8.0573351
20
6.000528
40
0.5004971
50
269.7286406
51
280.3856417
0
ARC
8
DEFAULT_255_1_234
10
8.0511423
20
5.9963996
40
0.4963778
50
256.6828919
51
270.4412052
0
ARC
8
DEFAULT_255_1_234
10
8.0172719
20
5.8579394
40
0.3538406
50
229.4223008
51
256.8556159
0
ARC
8
DEFAULT_255_1_234
10
7.9758112
20
5.8112736
40
0.2914296
50
181.818294
51
229.6455059
0
ARC
8
DEFAULT_255_1_234
10
8.0798068
20
5.8243496
40
0.3959084
50
179.9755256
51
183.2323064
0
ARC
8
DEFAULT_255_1_234
10
8.0625814
20
5.8223037
40
0.2293034
50
179.4465117
51
196.2869258
0
ARC
8
DEFAULT_255_1_234
10
8.0138222
20
5.8089651
40
0.1787621
50
196.5661473
51
227.705904
0
ARC
8
DEFAULT_255_1_234
10
8.0302317
20
5.8273155
40
0.2033784
50
227.7652068
51
257.8762805
0
ARC
8
DEFAULT_255_1_234
10
8.0527287
20
5.9216156
40
0.3003081
50
257.4584385
51
270.426602
0
ARC
8
DEFAULT_255_1_234
10
8.0572853
20
5.9505996
40
0.329292
50
269.5962073
51
280.8789248
0
ARC
8
DEFAULT_255_1_234
10
8.0802382
20
5.8359685
40
0.2123908
50
280.6346389
51
299.8595945
0
ARC
8
DEFAULT_255_1_234
10
8.0993289
20
5.7997212
40
0.171457
50
300.3576302
51
314.5517981
0
ARC
8
DEFAULT_255_1_234
10
8.0910349
20
5.8057919
40
0.1816095
50
315.0728369
51
345.0431014
0
ARC
8
DEFAULT_255_1_234
10
7.9987163
20
5.8326841
40
0.2777492
50
344.5986631
51
357.9269593
0
ARC
8
DEFAULT_255_1_234
10
7.9091489
20
5.8388276
40
0.3674917
50
357.4748886
51
0.0231117
0
ARC
8
DEFAULT_255_1_234
10
8.0114599
20
5.8412679
40
0.2651907
50
359.5047933
51
13.4239635
0
ARC
8
DEFAULT_255_1_234
10
8.0981242
20
5.8634478
40
0.1757509
50
12.9498199
51
48.7551375
0
ARC
8
DEFAULT_255_1_234
10
8.0798976
20
5.83854
40
0.2065134
50
49.5088623
51
72.1836453
0
ARC
8
DEFAULT_255_1_234
10
8.0441129
20
5.7323291
40
0.3185836
50
71.9010081
51
84.3554254
0
ARC
8
DEFAULT_255_1_234
10
8.0279761
20
5.5962326
40
0.4556151
50
84.0193428
51
89.333121
0
LINE
8
DEFAULT_255_2_778
10
21.2994169
20
-2.7781667
11
21.2994169
21
2.5135333
0
LINE
8
DEFAULT_255_2_778
10
21.2994169
20
2.5135333
11
8.0702169
21
2.5135333
0
LINE
8
DEFAULT_255_2_778
10
8.0702169
20
2.5135333
11
8.0702169
21
-2.7781667
0
LINE
8
DEFAULT_255_2_778
10
8.0702169
20
-2.7781667
11
21.2994169
21
-2.7781667
0
LINE
8
DEFAULT_255_2_778
10
21.2994169
20
-2.7781667
11
21.2994169
21
-2.7781667
0
ARC
8
DEFAULT_255_2_778
10
16.5342332
20
-0.1292865
40
1.3202532
50
148.7968675
51
180.1300552
0
ARC
8
DEFAULT_255_2_778
10
16.5333736
20
-0.1288532
40
1.3192936
50
97.5665172
51
148.7936255
0
ARC
8
DEFAULT_255_2_778
10
16.536479
20
-0.1555742
40
1.3461909
50
89.9827905
51
97.547783
0
ARC
8
DEFAULT_255_2_778
10
16.5398802
20
-0.1296332
40
1.3202532
50
58.7968675
51
90.1300552
0
ARC
8
DEFAULT_255_2_778
10
16.5403136
20
-0.1287736
40
1.3192936
50
7.5665172
51
58.7936255
0
ARC
8
DEFAULT_255_2_778
10
16.5135926
20
-0.131879
40
1.3461909
50
359.9827905
51
7.547783
0
ARC
8
DEFAULT_255_2_778
10
16.5395335
20
-0.1352802
40
1.3202532
50
328.7968675
51
0.1300552
0
ARC
8
DEFAULT_255_2_778
10
16.5403931
20
-0.1357136
40
1.3192936
50
277.5665172
51
328.7936255
0
ARC
8
DEFAULT_255_2_778
10
16.5372877
20
-0.1089926
40
1.3461909
50
269.9827905
51
277.547783
0
ARC
8
DEFAULT_255_2_778
10
16.5338865
20
-0.1349335
40
1.3202532
50
238.7968675
51
270.1300552
0
ARC
8
DEFAULT_255_2_778
10
16.5334532
20
-0.1357931
40
1.3192936
50
187.5665172
51
238.7936255
0
ARC
8
DEFAULT_255_2_778
10
16.5601742
20
-0.1326877
40
1.3461909
50
179.9827905
51
187.547783
0
LINE
8
DEFAULT_255_2_778
10
15.2139834
20
-0.1322834
11
15.2139834
21
-0.1322834
0
LINE
8
DEFAULT_255_2_778
10
2.7784752
20
-0.1323
11
14.6846752
21
-0.1323
0
LINE
8
DEFAULT_255_2_778
10
26.5909751
20
-0.1323
11
17.8597751
21
-0.1323
0
ARC
8
DEFAULT_255_2_778
10
10.7145557
20
-0.1308557
40
0.6600157
50
89.871003
51
180.128997
0
ARC
8
DEFAULT_255_2_778
10
10.717449
20
-0.1308345
40
0.6599943
50
359.8691577
51
90.1221758
0
ARC
8
DEFAULT_255_2_778
10
10.7174705
20
-0.1337705
40
0.6599728
50
269.8759594
51
0.1240406
0
ARC
8
DEFAULT_255_2_778
10
10.7145345
20
-0.1337492
40
0.6599942
50
179.8778094
51
270.1308423
0
LINE
8
DEFAULT_255_2_778
10
10.0545417
20
-0.1323417
11
10.0545417
21
-0.1323417
0
LINE
8
DEFAULT_255_2_778
10
10.716
20
7.8051499
11
10.716
21
-0.1323501
0
LINE
8
DEFAULT_255_2_778
10
16.8014667
20
1.9843666
11
14.6847667
21
-0.1323334
0
LINE
8
DEFAULT_255_2_778
10
14.6847667
20
-0.1323334
11
16.8014667
21
-2.2489334
0
ENDSEC
0
EOF