0
SECTION
2
HEADER
9
$MEASUREMENT
70
1
0
ENDSEC
0
SECTION
2
TABLES
0
TABLE
2
LTYPE
0
LTYPE
72
65
70
64
2
CONTINUOUS
3
______
73
0
40
0
0
ENDTAB
0
TABLE
2
LAYER
0
LAYER
2
DEFAULT_255_2_778
70
0
62
255
6
CONTINUOUS
0
LAYER
2
DEFAULT_255_2_005
70
0
62
255
6
CONTINUOUS
0
ENDTAB
0
ENDSEC
0
SECTION
2
ENTITIES
0
ARC
8
DEFAULT_255_2_778
10
5.0533896
20
5.6697134
40
0.6501964
50
89.4259247
51
179.6683382
0
ARC
8
DEFAULT_255_2_778
10
5.0664189
20
5.6697135
40
0.6501962
50
0.331653
51
90.5740878
0
ARC
8
DEFAULT_255_2_778
10
5.0664189
20
5.6772406
40
0.6501961
50
269.4259047
51
359.6683501
0
ARC
8
DEFAULT_255_2_778
10
5.0533897
20
5.6772408
40
0.6501964
50
180.3316649
51
270.5740679
0
LINE
8
DEFAULT_255_2_778
10
4.4032042
20
5.6734771
11
4.4032042
21
5.6734771
0
LINE
8
DEFAULT_255_2_778
10
6.6424001
20
6.2176667
11
12.9924001
21
6.2176667
0
LINE
8
DEFAULT_255_2_778
10
6.6424001
20
5.1593667
11
12.9924001
21
5.1593667
0
LINE
8
DEFAULT_255_2_005
10
5.9988909
20
11.3633648
11
5.9988909
21
9.4631
0
LINE
8
DEFAULT_255_2_005
10
5.9988909
20
9.4631
11
5.7587476
21
9.4631
0
LINE
8
DEFAULT_255_2_005
10
5.7587476
20
9.4631
11
5.7587476
21
10.3414504
0
LINE
8
DEFAULT_255_2_005
10
5.7587476
20
10.3414504
11
4.9939432
21
10.3414504
0
LINE
8
DEFAULT_255_2_005
10
4.9939432
20
10.3414504
11
4.9939432
21
9.4631
0
LINE
8
DEFAULT_255_2_005
10
4.9939432
20
9.4631
11
4.7551049
21
9.4631
0
LINE
8
DEFAULT_255_2_005
10
4.7551049
20
9.4631
11
4.7551049
21
11.3633648
0
LINE
8
DEFAULT_255_2_005
10
4.7551049
20
11.3633648
11
4.9939432
21
11.3633648
0
LINE
8
DEFAULT_255_2_005
10
4.9939432
20
11.3633648
11
4.9939432
21
10.5463554
0
LINE
8
DEFAULT_255_2_005
10
4.9939432
20
10.5463554
11
5.7587476
21
10.5463554
0
LINE
8
DEFAULT_255_2_005
10
5.7587476
20
10.5463554
11
5.7587476
21
11.3633648
0
LINE
8
DEFAULT_255_2_005
10
5.7587476
20
11.3633648
11
5.9988909
21
11.3633648
0
LINE
8
DEFAULT_255_2_005
10
7.6485714
20
10.5920348
11
7.6485714
21
10.2461762
0
LINE
8
DEFAULT_255_2_005
10
6.3708521
20
10.2187685
11
6.3708521
21
10.5763733
0
LINE
8
DEFAULT_255_2_005
10
7.4097332
20
10.2226839
11
7.4097332
21
10.5789835
0
LINE
8
DEFAULT_255_2_005
10
6.6083852
20
10.5868143
11
6.6083852
21
10.2461762
0
ARC
8
DEFAULT_255_2_005
10
6.1775922
20
10.2383189
40
1.4710002
50
351.4868534
51
0.306043
0
ARC
8
DEFAULT_255_2_005
10
6.7002556
20
10.1571766
40
0.9420878
50
337.9830676
51
351.66171
0
ARC
8
DEFAULT_255_2_005
10
6.9627486
20
10.0529215
40
0.6596567
50
322.0359989
51
337.8309503
0
ARC
8
DEFAULT_255_2_005
10
7.0583123
20
9.9798966
40
0.5393935
50
275.8856856
51
321.906942
0
ARC
8
DEFAULT_255_2_005
10
7.0135755
20
10.2281758
40
0.7911804
50
269.8619689
51
277.2647671
0
ARC
8
DEFAULT_255_2_005
10
7.0044874
20
10.1157919
40
0.6788325
50
252.6479774
51
270.6062032
0
ARC
8
DEFAULT_255_2_005
10
6.9683168
20
9.9849812
40
0.5432057
50
219.2557455
51
252.1745059
0
ARC
8
DEFAULT_255_2_005
10
7.0841978
20
10.079433
40
0.6927032
50
197.2244361
51
219.2399777
0
ARC
8
DEFAULT_255_2_005
10
7.4310389
20
10.1926945
40
1.0575419
50
185.5771879
51
197.5211676
0
ARC
8
DEFAULT_255_2_005
10
7.8535975
20
10.2421594
40
1.4829298
50
180.9037882
51
185.8926086
0
ARC
8
DEFAULT_255_2_005
10
7.7671374
20
10.5842957
40
1.3963078
50
170.7520399
51
180.3250896
0
ARC
8
DEFAULT_255_2_005
10
7.2884996
20
10.6651309
40
0.9109048
50
155.8534785
51
170.9321749
0
ARC
8
DEFAULT_255_2_005
10
7.0796479
20
10.7546818
40
0.6837045
50
142.2276025
51
155.5417452
0
ARC
8
DEFAULT_255_2_005
10
6.9731988
20
10.8404828
40
0.5470128
50
93.4556682
51
142.5018812
0
ARC
8
DEFAULT_255_2_005
10
7.0082094
20
10.6091123
40
0.7803557
50
89.9376105
51
94.9977899
0
ARC
8
DEFAULT_255_2_005
10
7.0162544
20
10.692535
40
0.6969696
50
73.5513192
51
90.5915105
0
ARC
8
DEFAULT_255_2_005
10
7.0600166
20
10.8506544
40
0.5329372
50
38.5259831
51
73.250146
0
ARC
8
DEFAULT_255_2_005
10
6.9354487
20
10.7530209
40
0.691204
50
17.3223778
51
38.4258172
0
ARC
8
DEFAULT_255_2_005
10
6.5743682
20
10.6349799
40
1.0710665
50
5.7332902
51
17.5992786
0
ARC
8
DEFAULT_255_2_005
10
6.103289
20
10.5797026
40
1.5453316
50
0.4572413
51
6.0277165
0
ARC
8
DEFAULT_255_2_005
10
5.9316451
20
10.5846351
40
1.4780989
50
359.7809285
51
5.8907341
0
ARC
8
DEFAULT_255_2_005
10
6.4947271
20
10.6448208
40
0.9118156
50
5.7601702
51
14.8539361
0
ARC
8
DEFAULT_255_2_005
10
6.8592229
20
10.7436896
40
0.534159
50
14.6260778
51
29.1008518
0
ARC
8
DEFAULT_255_2_005
10
6.9859603
20
10.8093165
40
0.3915262
50
29.729544
51
33.8306186
0
ARC
8
DEFAULT_255_2_005
10
7.0430828
20
10.8499762
40
0.3214445
50
33.4789058
51
83.873087
0
ARC
8
DEFAULT_255_2_005
10
7.0105193
20
10.6792518
40
0.4948718
50
82.2339152
51
90.1690546
0
ARC
8
DEFAULT_255_2_005
10
7.0043378
20
10.7612123
40
0.4129361
50
89.3448873
51
107.3680471
0
ARC
8
DEFAULT_255_2_005
10
6.9802469
20
10.8489697
40
0.3220044
50
107.9381269
51
146.7894616
0
ARC
8
DEFAULT_255_2_005
10
7.1280896
20
10.7487997
40
0.5005717
50
146.4652384
51
163.1466521
0
ARC
8
DEFAULT_255_2_005
10
7.4414506
20
10.6501757
40
0.8290747
50
162.9021784
51
173.1316406
0
ARC
8
DEFAULT_255_2_005
10
7.9412289
20
10.5868943
40
1.3328376
50
173.0001179
51
179.9445552
0
ARC
8
DEFAULT_255_2_005
10
7.7751202
20
10.5817064
40
1.1667462
50
179.6818989
51
179.7491639
0
ARC
8
DEFAULT_255_2_005
10
7.9510646
20
10.2402884
40
1.3426923
50
179.7487545
51
186.7846851
0
ARC
8
DEFAULT_255_2_005
10
7.4524392
20
10.1790981
40
0.8403317
50
186.6582122
51
196.9493532
0
ARC
8
DEFAULT_255_2_005
10
7.1431708
20
10.0829877
40
0.5164815
50
196.7523619
51
212.9020073
0
ARC
8
DEFAULT_255_2_005
10
6.9842641
20
9.9779422
40
0.3260075
50
212.5720163
51
263.1761367
0
ARC
8
DEFAULT_255_2_005
10
7.0103537
20
10.1175779
40
0.4678467
50
262.0354563
51
270.1611374
0
ARC
8
DEFAULT_255_2_005
10
7.0162267
20
10.100946
40
0.4512359
50
269.4213322
51
284.8240002
0
ARC
8
DEFAULT_255_2_005
10
7.0540351
20
9.9623124
40
0.3075451
50
284.6227056
51
326.0789603
0
ARC
8
DEFAULT_255_2_005
10
6.9220185
20
10.0488541
40
0.4653919
50
326.3078188
51
342.4273591
0
ARC
8
DEFAULT_255_2_005
10
6.6077336
20
10.1524016
40
0.7962824
50
342.1519017
51
351.8834049
0
ARC
8
DEFAULT_255_2_005
10
6.1035204
20
10.2271528
40
1.3060016
50
351.7599712
51
358.4483029
0
ARC
8
DEFAULT_255_2_005
10
5.6924519
20
10.2455687
40
1.7174336
50
358.2055021
51
359.2365096
0
LINE
8
DEFAULT_255_2_005
10
9.0881264
20
10.8139064
11
8.8479831
21
10.8139064
0
LINE
8
DEFAULT_255_2_005
10
7.9239532
20
10.0138636
11
8.1640965
21
10.0138636
0
ARC
8
DEFAULT_255_2_005
10
8.4279631
20
9.9464823
40
0.4200313
50
359.5777274
51
11.4019843
0
ARC
8
DEFAULT_255_2_005
10
8.5720343
20
9.9767912
40
0.2728144
50
11.1438467
51
31.8837747
0
ARC
8
DEFAULT_255_2_005
10
8.6106308
20
9.9982481
40
0.2287181
50
32.4266663
51
45.4862607
0
ARC
8
DEFAULT_255_2_005
10
8.515301
20
9.8948731
40
0.3692942
50
46.1838566
51
57.3876958
0
ARC
8
DEFAULT_255_2_005
10
8.338431
20
9.6248092
40
0.6921119
50
57.1035222
51
63.6437124
0
ARC
8
DEFAULT_255_2_005
10
8.1187956
20
9.1847842
40
1.1839049
50
63.5733155
51
68.3351637
0
ARC
8
DEFAULT_255_2_005
10
7.9056562
20
8.6597989
40
1.7504962
50
68.1953728
51
70.3956373
0
ARC
8
DEFAULT_255_2_005
10
9.1418748
20
12.1375634
40
1.9404503
50
246.7730247
51
250.4639538
0
ARC
8
DEFAULT_255_2_005
10
8.8696926
20
11.5071238
40
1.2537672
50
241.5773628
51
246.841225
0
ARC
8
DEFAULT_255_2_005
10
8.6312934
20
11.0695111
40
0.7554341
50
234.0692541
51
241.681384
0
ARC
8
DEFAULT_255_2_005
10
8.5284242
20
10.921398
40
0.5751499
50
233.4155757
51
233.7088367
0
ARC
8
DEFAULT_255_2_005
10
8.5430172
20
10.9462436
40
0.6038058
50
221.7638659
51
233.7088152
0
ARC
8
DEFAULT_255_2_005
10
8.4507447
20
10.8629226
40
0.4794836
50
207.7494795
51
221.6814687
0
ARC
8
DEFAULT_255_2_005
10
8.4388082
20
10.8523084
40
0.4639937
50
186.680224
51
207.2758212
0
ARC
8
DEFAULT_255_2_005
10
8.5608741
20
10.8702335
40
0.5873271
50
179.8928346
51
187.0317738
0
ARC
8
DEFAULT_255_2_005
10
8.5263515
20
10.8771777
40
0.5528344
50
160.8948743
51
180.6058654
0
ARC
8
DEFAULT_255_2_005
10
8.4556592
20
10.8962943
40
0.4798058
50
133.6801181
51
160.288933
0
ARC
8
DEFAULT_255_2_005
10
8.4780509
20
10.8760284
40
0.5099314
50
98.0832414
51
133.9270351
0
ARC
8
DEFAULT_255_2_005
10
8.5166813
20
10.6756065
40
0.7138649
50
89.8065887
51
98.891097
0
ARC
8
DEFAULT_255_2_005
10
8.5234678
20
10.7549996
40
0.6344829
50
74.2979896
51
90.3952322
0
ARC
8
DEFAULT_255_2_005
10
8.5452499
20
10.8420443
40
0.5447977
50
60.12001
51
74.0258158
0
ARC
8
DEFAULT_255_2_005
10
8.5641044
20
10.8694625
40
0.5116384
50
27.5687047
51
60.4211174
0
ARC
8
DEFAULT_255_2_005
10
8.4751478
20
10.8210214
40
0.6129162
50
0.2627834
51
27.7342372
0
ARC
8
DEFAULT_255_2_005
10
8.3738739
20
10.813919
40
0.7142525
50
359.9989906
51
0.7952664
0
ARC
8
DEFAULT_255_2_005
10
8.2602947
20
10.8176833
40
0.5877005
50
359.631777
51
10.1212377
0
ARC
8
DEFAULT_255_2_005
10
8.4641211
20
10.8554624
40
0.3804095
50
9.9145256
51
26.9762398
0
ARC
8
DEFAULT_255_2_005
10
8.5409399
20
10.8922155
40
0.2952843
50
27.3822636
51
41.1901278
0
ARC
8
DEFAULT_255_2_005
10
8.5579438
20
10.9047289
40
0.2742534
50
41.5622887
51
77.8699011
0
ARC
8
DEFAULT_255_2_005
10
8.5224774
20
10.7618705
40
0.4214005
50
77.236922
51
90.4604352
0
ARC
8
DEFAULT_255_2_005
10
8.5159391
20
10.7665506
40
0.4167187
50
89.5666231
51
102.0248541
0
ARC
8
DEFAULT_255_2_005
10
8.4849546
20
10.9047718
40
0.2750795
50
101.7107266
51
125.6253412
0
ARC
8
DEFAULT_255_2_005
10
8.4696678
20
10.9302268
40
0.2454959
50
126.1857894
51
135.4861734
0
ARC
8
DEFAULT_255_2_005
10
8.4847239
20
10.9181272
40
0.264722
50
135.9033717
51
165.7601254
0
ARC
8
DEFAULT_255_2_005
10
8.6143872
20
10.8822203
40
0.3992444
50
165.3426764
51
178.6342788
0
ARC
8
DEFAULT_255_2_005
10
8.7321508
20
10.8753452
40
0.5171543
50
178.1837593
51
180.0108402
0
ARC
8
DEFAULT_255_2_005
10
8.4891378
20
10.8716959
40
0.2741644
50
179.257788
51
204.9573036
0
ARC
8
DEFAULT_255_2_005
10
8.485904
20
10.8744323
40
0.272414
50
205.7661048
51
227.2917408
0
ARC
8
DEFAULT_255_2_005
10
8.6198945
20
11.0193464
40
0.4697806
50
227.2712182
51
238.0733188
0
ARC
8
DEFAULT_255_2_005
10
8.7836018
20
11.2786183
40
0.7764073
50
237.9382104
51
245.3110265
0
ARC
8
DEFAULT_255_2_005
10
8.9706831
20
11.6807149
40
1.2198918
50
245.2158056
51
250.3284166
0
ARC
8
DEFAULT_255_2_005
10
9.0736762
20
11.9554765
40
1.5132947
50
250.1584331
51
250.453915
0
ARC
8
DEFAULT_255_2_005
10
8.089567
20
9.0635927
40
1.5417081
50
65.7192213
51
71.945294
0
ARC
8
DEFAULT_255_2_005
10
8.3282554
20
9.5882739
40
0.9652905
50
56.8755581
51
65.8273045
0
ARC
8
DEFAULT_255_2_005
10
8.5412124
20
9.9105813
40
0.5789948
50
42.8524789
51
57.0952989
0
ARC
8
DEFAULT_255_2_005
10
8.6348194
20
10.0040364
40
0.4468371
50
41.6494322
51
42.2306678
0
ARC
8
DEFAULT_255_2_005
10
8.6185379
20
9.9931895
40
0.4662195
50
10.8430063
51
41.3157545
0
ARC
8
DEFAULT_255_2_005
10
8.4228414
20
9.9498434
40
0.6666011
50
359.6693883
51
11.3379329
0
ARC
8
DEFAULT_255_2_005
10
8.5133374
20
9.9404758
40
0.5761206
50
343.781248
51
0.5490974
0
ARC
8
DEFAULT_255_2_005
10
8.6361249
20
9.9069577
40
0.4488629
50
312.4947504
51
343.5117741
0
ARC
8
DEFAULT_255_2_005
10
8.6009789
20
9.9467525
40
0.501948
50
283.2698463
51
312.3842779
0
ARC
8
DEFAULT_255_2_005
10
8.5399022
20
10.1838162
40
0.7467185
50
270.5069291
51
283.6558781
0
ARC
8
DEFAULT_255_2_005
10
8.530875
20
10.3814731
40
0.9444756
50
269.9977072
51
270.9484496
0
ARC
8
DEFAULT_255_2_005
10
8.5247797
20
10.0941898
40
0.6572203
50
242.8410877
51
270.528092
0
ARC
8
DEFAULT_255_2_005
10
8.4716839
20
9.9981792
40
0.54757
50
211.3826072
51
243.1985992
0
ARC
8
DEFAULT_255_2_005
10
8.4732473
20
9.9972559
40
0.5484263
50
184.2431658
51
211.2152027
0
ARC
8
DEFAULT_255_2_005
10
8.6020596
20
10.0133394
40
0.6781067
50
179.9557121
51
184.7931175
0
ARC
8
DEFAULT_255_2_005
10
8.6696998
20
10.009932
40
0.5056186
50
179.5544775
51
192.3103781
0
ARC
8
DEFAULT_255_2_005
10
8.5027301
20
9.9715294
40
0.3343057
50
191.9812402
51
217.1743918
0
ARC
8
DEFAULT_255_2_005
10
8.4767398
20
9.9554482
40
0.3038933
50
217.7194583
51
225.2073279
0
ARC
8
DEFAULT_255_2_005
10
8.4920696
20
9.9733256
40
0.3273854
50
225.5077316
51
258.5629232
0
ARC
8
DEFAULT_255_2_005
10
8.5275806
20
10.125175
40
0.4832837
50
258.0062407
51
270.3860869
0
ARC
8
DEFAULT_255_2_005
10
8.5341612
20
10.132368
40
0.4904769
50
269.6117008
51
280.2417156
0
ARC
8
DEFAULT_255_2_005
10
8.5673175
20
9.955849
40
0.3108779
50
280.0126821
51
297.5247676
0
ARC
8
DEFAULT_255_2_005
10
8.6005427
20
9.8886481
40
0.2359344
50
297.9112003
51
315.3434128
0
ARC
8
DEFAULT_255_2_005
10
8.5757397
20
9.9101539
40
0.2687014
50
315.7987041
51
348.0066387
0
ARC
8
DEFAULT_255_2_005
10
8.4494379
20
9.9404498
40
0.398556
50
347.5193838
51
0.4222059
0
LINE
8
DEFAULT_255_2_005
10
9.6519413
20
11.3633648
11
9.6519413
21
9.4631
0
LINE
8
DEFAULT_255_2_005
10
9.6519413
20
9.4631
11
9.413103
21
9.4631
0
LINE
8
DEFAULT_255_2_005
10
9.413103
20
9.4631
11
9.413103
21
11.3633648
0
LINE
8
DEFAULT_255_2_005
10
9.413103
20
11.3633648
11
9.6519413
21
11.3633648
0
LINE
8
DEFAULT_255_2_005
10
11.3120627
20
11.3633648
11
11.3120627
21
9.4631
0
LINE
8
DEFAULT_255_2_005
10
11.3120627
20
9.4631
11
11.0719194
21
9.4631
0
LINE
8
DEFAULT_255_2_005
10
11.0719194
20
9.4631
11
10.3110304
21
10.9274524
0
LINE
8
DEFAULT_255_2_005
10
10.3110304
20
10.9274524
11
10.3110304
21
9.4631
0
LINE
8
DEFAULT_255_2_005
10
10.3110304
20
9.4631
11
10.070887
21
9.4631
0
LINE
8
DEFAULT_255_2_005
10
10.070887
20
9.4631
11
10.070887
21
11.3633648
0
LINE
8
DEFAULT_255_2_005
10
10.070887
20
11.3633648
11
10.3110304
21
11.3633648
0
LINE
8
DEFAULT_255_2_005
10
10.3110304
20
11.3633648
11
11.0745296
21
9.8924868
0
LINE
8
DEFAULT_255_2_005
10
11.0745296
20
9.8924868
11
11.0745296
21
11.3633648
0
LINE
8
DEFAULT_255_2_005
10
11.0745296
20
11.3633648
11
11.3120627
21
11.3633648
0
LINE
8
DEFAULT_255_2_005
10
12.9147586
20
10.409317
11
12.9147586
21
9.699328
0
LINE
8
DEFAULT_255_2_005
10
12.9147586
20
9.699328
11
12.8729946
21
9.6471229
0
LINE
8
DEFAULT_255_2_005
10
11.6827188
20
10.2187685
11
11.6827188
21
10.5920348
0
LINE
8
DEFAULT_255_2_005
10
12.9147586
20
10.8060756
11
12.6759204
21
10.8060756
0
LINE
8
DEFAULT_255_2_005
10
11.9228622
20
10.6220527
11
11.9228622
21
10.23443
0
LINE
8
DEFAULT_255_2_005
10
12.640682
20
9.7345664
11
12.6759204
21
9.7671946
0
LINE
8
DEFAULT_255_2_005
10
12.6759204
20
9.7671946
11
12.6759204
21
10.2057172
0
LINE
8
DEFAULT_255_2_005
10
12.6759204
20
10.2057172
11
12.3287566
21
10.2057172
0
LINE
8
DEFAULT_255_2_005
10
12.3287566
20
10.2057172
11
12.3287566
21
10.409317
0
LINE
8
DEFAULT_255_2_005
10
12.3287566
20
10.409317
11
12.9147586
21
10.409317
0
ARC
8
DEFAULT_255_2_005
10
12.4355702
20
10.0258183
40
0.5785761
50
282.8919727
51
319.1159822
0
ARC
8
DEFAULT_255_2_005
10
12.3560644
20
10.328702
40
0.8916188
50
270.2891055
51
283.5297163
0
ARC
8
DEFAULT_255_2_005
10
12.3457766
20
10.564093
40
1.1270956
50
269.9972898
51
270.7517054
0
ARC
8
DEFAULT_255_2_005
10
12.3384463
20
10.1832406
40
0.7462786
50
254.2092012
51
270.5586992
0
ARC
8
DEFAULT_255_2_005
10
12.2895185
20
10.0041756
40
0.5606592
50
220.3398327
51
254.0409093
0
ARC
8
DEFAULT_255_2_005
10
12.3840396
20
10.0807967
40
0.6823089
50
196.8292644
51
220.1061071
0
ARC
8
DEFAULT_255_2_005
10
12.7256716
20
10.1898102
40
1.0408853
50
184.6980762
51
197.1284426
0
ARC
8
DEFAULT_255_2_005
10
13.1278853
20
10.2319378
40
1.4452264
50
180.5221028
51
185.056576
0
ARC
8
DEFAULT_255_2_005
10
13.273976
20
10.6000547
40
1.5912774
50
172.3639605
51
180.2887662
0
ARC
8
DEFAULT_255_2_005
10
12.6784189
20
10.6825432
40
0.9900442
50
160.6380459
51
172.5155536
0
ARC
8
DEFAULT_255_2_005
10
12.330722
20
10.8068709
40
0.6207962
50
141.8400363
51
160.824714
0
ARC
8
DEFAULT_255_2_005
10
12.2411774
20
10.86766
40
0.5128845
50
102.1547862
51
140.9990105
0
ARC
8
DEFAULT_255_2_005
10
12.3140442
20
10.5795418
40
0.8099549
50
89.5131855
51
102.9024539
0
ARC
8
DEFAULT_255_2_005
10
12.326869
20
10.6045143
40
0.7849756
50
77.736637
51
90.4337968
0
ARC
8
DEFAULT_255_2_005
10
12.3856545
20
10.8599946
40
0.5228482
50
52.245078
51
78.0849644
0
ARC
8
DEFAULT_255_2_005
10
12.4082753
20
10.8963934
40
0.4802399
50
45.3551552
51
51.7199346
0
ARC
8
DEFAULT_255_2_005
10
12.3699434
20
10.8636464
40
0.5304919
50
17.9198553
51
44.8949853
0
ARC
8
DEFAULT_255_2_005
10
12.1226849
20
10.7786953
40
0.7919078
50
5.2562713
51
18.2636612
0
ARC
8
DEFAULT_255_2_005
10
11.8805849
20
10.7487472
40
1.0357615
50
3.1728871
51
5.6790799
0
ARC
8
DEFAULT_255_2_005
10
11.997078
20
10.7549568
40
0.6807644
50
4.3064118
51
13.9375871
0
ARC
8
DEFAULT_255_2_005
10
12.2197819
20
10.8116164
40
0.4509718
50
13.7660812
51
28.9011542
0
ARC
8
DEFAULT_255_2_005
10
12.3102793
20
10.8590819
40
0.3488121
50
29.2598153
51
40.0259616
0
ARC
8
DEFAULT_255_2_005
10
12.3745866
20
10.9099634
40
0.2668558
50
40.5403172
51
75.183734
0
ARC
8
DEFAULT_255_2_005
10
12.3318384
20
10.7660444
40
0.4169456
50
74.5620703
51
87.9338969
0
ARC
8
DEFAULT_255_2_005
10
12.3224573
20
10.6295408
40
0.5537167
50
87.4730352
51
90.0234106
0
ARC
8
DEFAULT_255_2_005
10
12.3177652
20
10.6894615
40
0.493816
50
89.4818424
51
103.1360473
0
ARC
8
DEFAULT_255_2_005
10
12.2705087
20
10.8720287
40
0.3053201
50
102.2861222
51
144.4647889
0
ARC
8
DEFAULT_255_2_005
10
12.3703406
20
10.8087717
40
0.4233751
50
145.3507903
51
161.9303206
0
ARC
8
DEFAULT_255_2_005
10
12.6767181
20
10.7042408
40
0.7470773
50
161.5970681
51
171.2339002
0
ARC
8
DEFAULT_255_2_005
10
13.1701391
20
10.6253596
40
1.2467591
50
171.1069735
51
177.7090628
0
ARC
8
DEFAULT_255_2_005
10
13.6333094
20
10.5999059
40
1.7105907
50
177.4773226
51
179.258177
0
ARC
8
DEFAULT_255_2_005
10
13.1298091
20
10.2285294
40
1.2069614
50
179.7198893
51
187.6183281
0
ARC
8
DEFAULT_255_2_005
10
12.6888955
20
10.1676212
40
0.7618672
50
187.4741478
51
199.2488477
0
ARC
8
DEFAULT_255_2_005
10
12.4403234
20
10.0806451
40
0.4985179
50
199.2297077
51
215.106325
0
ARC
8
DEFAULT_255_2_005
10
12.3222215
20
9.9948619
40
0.352574
50
214.7393606
51
264.8438055
0
ARC
8
DEFAULT_255_2_005
10
12.3461482
20
10.1380855
40
0.497489
50
263.5816515
51
270.1013785
0
ARC
8
DEFAULT_255_2_005
10
12.3510371
20
10.2759052
40
0.6353206
50
269.6384811
51
279.7568735
0
ARC
8
DEFAULT_255_2_005
10
12.3915754
20
10.0491977
40
0.4050254
50
279.5400968
51
295.992035
0
ARC
8
DEFAULT_255_2_005
10
12.4353292
20
9.9554779
40
0.301615
50
296.3233392
51
312.9096179
0
ARC
8
DEFAULT_255_2_778
10
13.1777926
20
7.1564478
40
0.7407663
50
359.0178058
51
16.6744529
0
ARC
8
DEFAULT_255_2_778
10
13.4929362
20
7.2510687
40
0.4117244
50
16.6442594
51
83.1171234
0
ARC
8
DEFAULT_255_2_778
10
13.3949961
20
6.8348315
40
0.8380382
50
79.8779674
51
90.3928446
0
ARC
8
DEFAULT_255_2_778
10
5.4392629
20
6.0145578
40
1.6583391
50
89.5685609
51
100.6422984
0
ARC
8
DEFAULT_255_2_778
10
5.3146096
20
6.6487882
40
1.0120115
50
100.3376239
51
119.5724294
0
ARC
8
DEFAULT_255_2_778
10
5.2022334
20
6.8621631
40
0.7710093
50
120.1348532
51
134.8947228
0
ARC
8
DEFAULT_255_2_778
10
5.2443775
20
4.5696096
40
0.8395309
50
225.7013254
51
253.8369393
0
ARC
8
DEFAULT_255_2_778
10
5.4024616
20
5.0744819
40
1.3685002
50
253.3641123
51
266.8276386
0
ARC
8
DEFAULT_255_2_778
10
5.4498731
20
5.6354772
40
1.9313282
50
266.3442626
51
270.0556852
0
ARC
8
DEFAULT_255_2_778
10
13.4019511
20
4.4450773
40
0.7410363
50
269.0179339
51
286.6713971
0
ARC
8
DEFAULT_255_2_778
10
13.4966483
20
4.1296982
40
0.4117469
50
286.6379991
51
353.1126757
0
ARC
8
DEFAULT_255_2_778
10
13.0805821
20
4.227604
40
0.8378878
50
349.8761221
51
0.3929053
0
LINE
8
DEFAULT_255_2_778
10
13.3892502
20
7.6728498
11
5.4517502
21
7.6728498
0
LINE
8
DEFAULT_255_2_778
10
4.6580502
20
7.4083498
11
3.5996502
21
6.3499498
0
LINE
8
DEFAULT_255_2_778
10
3.5996502
20
6.3499498
11
3.5996502
21
5.0270498
0
LINE
8
DEFAULT_255_2_778
10
3.5996502
20
5.0270498
11
4.6580502
21
3.9687498
0
LINE
8
DEFAULT_255_2_778
10
5.4517502
20
3.7041498
11
13.3892502
21
3.7041498
0
LINE
8
DEFAULT_255_2_778
10
13.9184502
20
4.2333498
11
13.9184502
21
7.1437498
0
LINE
8
DEFAULT_255_2_778
10
2.8059502
20
12.9645498
11
2.8059502
21
-1.3229502
0
ENDSEC
0
EOF