0
SECTION
2
HEADER
9
$MEASUREMENT
70
1
0
ENDSEC
0
SECTION
2
TABLES
0
TABLE
2
LTYPE
0
LTYPE
72
65
70
64
2
CONTINUOUS
3
______
73
0
40
0
0
ENDTAB
0
TABLE
2
LAYER
0
LAYER
2
DEFAULT_255_2_778
70
0
62
255
6
CONTINUOUS
0
LAYER
2
DEFAULT_255_1_234
70
0
62
255
6
CONTINUOUS
0
ENDTAB
0
ENDSEC
0
SECTION
2
ENTITIES
0
ARC
8
DEFAULT_255_2_778
10
9.9259466
20
15.7250484
40
2.2366075
50
359.8911612
51
10.2064255
0
ARC
8
DEFAULT_255_2_778
10
10.0947542
20
15.7541113
40
2.0653216
50
10.2427362
51
26.2697358
0
ARC
8
DEFAULT_255_2_778
10
9.887338
20
15.6344359
40
2.3043363
50
26.6554703
51
47.3043484
0
ARC
8
DEFAULT_255_2_778
10
9.404948
20
15.132304
40
3.0005296
50
47.0362
51
57.4418929
0
ARC
8
DEFAULT_255_2_778
10
8.9819383
20
14.4741554
40
3.7828929
50
57.4063554
51
65.8586273
0
ARC
8
DEFAULT_255_2_778
10
8.6098191
20
13.6482836
40
4.6887264
50
65.836626
51
73.2991983
0
ARC
8
DEFAULT_255_2_778
10
8.3363601
20
12.7414926
40
5.6358526
50
73.2856157
51
80.5401948
0
ARC
8
DEFAULT_255_2_778
10
8.1999259
20
11.922204
40
6.4664237
50
80.5408672
51
90.0542774
0
ARC
8
DEFAULT_255_2_778
10
8.1861895
20
11.9493675
40
6.4392618
50
89.9322815
51
100.2002654
0
ARC
8
DEFAULT_255_2_778
10
8.0263565
20
12.8459773
40
5.5285185
50
100.2155335
51
107.6473899
0
ARC
8
DEFAULT_255_2_778
10
7.7391209
20
13.7487479
40
4.5811543
50
107.6469379
51
114.9415048
0
ARC
8
DEFAULT_255_2_778
10
7.3665552
20
14.5452812
40
3.701799
50
114.9116736
51
123.4633835
0
ARC
8
DEFAULT_255_2_778
10
6.9412298
20
15.1849817
40
2.9336108
50
123.4225752
51
134.1467252
0
ARC
8
DEFAULT_255_2_778
10
6.3987537
20
15.7106393
40
2.1787098
50
133.5382112
51
165.2643423
0
ARC
8
DEFAULT_255_2_778
10
6.3850854
20
15.7341078
40
2.159607
50
165.7742663
51
177.0540582
0
ARC
8
DEFAULT_255_2_778
10
6.5628503
20
15.7212608
40
2.3378002
50
176.9635222
51
180.0112987
0
ARC
8
DEFAULT_255_2_778
10
6.4616536
20
5.1771511
40
2.2366075
50
179.8911612
51
190.2064255
0
ARC
8
DEFAULT_255_2_778
10
6.292846
20
5.1480882
40
2.0653216
50
190.2427362
51
206.2697358
0
ARC
8
DEFAULT_255_2_778
10
6.5002622
20
5.2677636
40
2.3043363
50
206.6554703
51
227.3043484
0
ARC
8
DEFAULT_255_2_778
10
6.9826522
20
5.7698956
40
3.0005296
50
227.0362
51
237.4418929
0
ARC
8
DEFAULT_255_2_778
10
7.4056619
20
6.4280442
40
3.7828929
50
237.4063554
51
245.8586273
0
ARC
8
DEFAULT_255_2_778
10
7.7777811
20
7.2539159
40
4.6887264
50
245.836626
51
253.2991983
0
ARC
8
DEFAULT_255_2_778
10
8.0512402
20
8.160707
40
5.6358526
50
253.2856157
51
260.5401948
0
ARC
8
DEFAULT_255_2_778
10
8.1876743
20
8.9799956
40
6.4664237
50
260.5408672
51
270.0542774
0
ARC
8
DEFAULT_255_2_778
10
8.2014107
20
8.9528321
40
6.4392618
50
269.9322815
51
280.2002654
0
ARC
8
DEFAULT_255_2_778
10
8.3612437
20
8.0562222
40
5.5285185
50
280.2155335
51
287.6473899
0
ARC
8
DEFAULT_255_2_778
10
8.6484794
20
7.1534517
40
4.5811543
50
287.6469379
51
294.9415048
0
ARC
8
DEFAULT_255_2_778
10
9.021045
20
6.3569184
40
3.701799
50
294.9116736
51
303.4633835
0
ARC
8
DEFAULT_255_2_778
10
9.4463705
20
5.7172178
40
2.9336108
50
303.4225752
51
314.1467252
0
ARC
8
DEFAULT_255_2_778
10
9.9888465
20
5.1915602
40
2.1787098
50
313.5382112
51
345.2643423
0
ARC
8
DEFAULT_255_2_778
10
10.0025148
20
5.1680917
40
2.159607
50
345.7742663
51
357.0540582
0
ARC
8
DEFAULT_255_2_778
10
9.8247499
20
5.1809388
40
2.3378002
50
356.9635222
51
0.0112987
0
LINE
8
DEFAULT_255_2_778
10
4.2250501
20
15.7207998
11
4.2250501
21
5.1813998
0
LINE
8
DEFAULT_255_2_778
10
12.1625501
20
5.1813998
11
12.1625501
21
15.7207998
0
LINE
8
DEFAULT_255_2_778
10
8.1938
20
-2.7781667
11
8.1938
21
2.5135333
0
LINE
8
DEFAULT_255_2_778
10
6.0771334
20
13.0969458
11
10.3104334
21
13.0969458
0
LINE
8
DEFAULT_255_2_778
10
10.3104334
20
13.0969458
11
8.1938334
21
9.7896458
0
LINE
8
DEFAULT_255_2_778
10
8.1938334
20
9.7896458
11
6.0771334
21
13.0969458
0
ARC
8
DEFAULT_255_2_778
10
8.4796107
20
23.1937079
40
13.4341783
50
251.5367245
51
256.2181286
0
ARC
8
DEFAULT_255_2_778
10
8.2753979
20
22.3574547
40
12.5733523
50
256.2141008
51
262.1325958
0
ARC
8
DEFAULT_255_2_778
10
8.1966855
20
21.7946278
40
12.0050489
50
262.1370399
51
269.9861098
0
ARC
8
DEFAULT_255_2_778
10
8.1888429
20
21.8363051
40
12.0467269
50
270.0234582
51
279.3554781
0
ARC
8
DEFAULT_255_2_778
10
8.0781584
20
22.5240688
40
12.7433355
50
279.3438326
51
284.8483836
0
ARC
8
DEFAULT_255_2_778
10
7.8766678
20
23.2960209
40
13.5411449
50
284.8354372
51
288.4518821
0
LINE
8
DEFAULT_255_1_234
10
5.6800137
20
-0.6668567
11
5.6800137
21
-1.8419
0
LINE
8
DEFAULT_255_1_234
10
5.6800137
20
-1.8419
11
5.5306234
21
-1.8419
0
LINE
8
DEFAULT_255_1_234
10
5.5306234
20
-1.8419
11
5.5306234
21
-0.8515867
0
LINE
8
DEFAULT_255_1_234
10
5.5306234
20
-0.8515867
11
5.2310396
21
-0.9616215
0
LINE
8
DEFAULT_255_1_234
10
5.2310396
20
-0.9616215
11
5.2310396
21
-0.8266883
0
LINE
8
DEFAULT_255_1_234
10
5.2310396
20
-0.8266883
11
5.6567217
21
-0.6668567
0
LINE
8
DEFAULT_255_1_234
10
5.6567217
20
-0.6668567
11
5.6800137
21
-0.6668567
0
ENDSEC
0
EOF