0
SECTION
2
HEADER
9
$MEASUREMENT
70
1
0
ENDSEC
0
SECTION
2
TABLES
0
TABLE
2
LTYPE
0
LTYPE
72
65
70
64
2
CONTINUOUS
3
______
73
0
40
0
0
ENDTAB
0
TABLE
2
LAYER
0
LAYER
2
DEFAULT_255_2_778
70
0
62
255
6
CONTINUOUS
0
LAYER
2
DEFAULT_255_1_234
70
0
62
255
6
CONTINUOUS
0
ENDTAB
0
ENDSEC
0
SECTION
2
ENTITIES
0
LINE
8
DEFAULT_255_2_778
10
6.2095
20
-2.7781667
11
6.2095
21
2.5135333
0
ARC
8
DEFAULT_255_2_778
10
6.2196952
20
5.1629268
40
2.6560309
50
160.7095027
51
180.0775207
0
ARC
8
DEFAULT_255_2_778
10
6.2036206
20
5.1648241
40
2.6402344
50
102.0301591
51
160.6331218
0
ARC
8
DEFAULT_255_2_778
10
6.2077006
20
5.1294408
40
2.6756931
50
89.9621802
51
101.9576865
0
ARC
8
DEFAULT_255_2_778
10
6.2131411
20
5.1497235
40
2.6554123
50
70.3567975
51
90.0792807
0
ARC
8
DEFAULT_255_2_778
10
6.2149767
20
5.1650929
40
2.6403224
50
11.9023555
51
70.2821965
0
ARC
8
DEFAULT_255_2_778
10
6.1794547
20
5.1610699
40
2.6759126
50
359.9628159
51
11.829777
0
ARC
8
DEFAULT_255_2_778
10
6.2001283
20
5.1556623
40
2.655241
50
340.3554002
51
0.0792127
0
ARC
8
DEFAULT_255_2_778
10
6.2152203
20
5.1539583
40
2.6404568
50
281.9019784
51
340.2801285
0
ARC
8
DEFAULT_255_2_778
10
6.2112012
20
5.1894109
40
2.6759781
50
269.962864
51
281.8296308
0
ARC
8
DEFAULT_255_2_778
10
6.2057903
20
5.1685704
40
2.6551397
50
250.3550189
51
270.0793355
0
ARC
8
DEFAULT_255_2_778
10
6.2041162
20
5.1534794
40
2.6403665
50
191.9001656
51
250.2791382
0
ARC
8
DEFAULT_255_2_778
10
6.2398473
20
5.1575979
40
2.676181
50
179.9628467
51
191.8287004
0
LINE
8
DEFAULT_255_2_778
10
3.5636667
20
5.1593333
11
3.5636667
21
5.1593333
0
ARC
8
DEFAULT_255_2_778
10
4.6950082
20
7.0176168
40
0.3377488
50
181.0553469
51
224.134648
0
ARC
8
DEFAULT_255_2_778
10
4.9312315
20
7.2240198
40
0.651221
50
222.6953861
51
237.1959162
0
ARC
8
DEFAULT_255_2_778
10
5.1955685
20
7.6246844
40
1.1312118
50
236.9368211
51
246.0048689
0
ARC
8
DEFAULT_255_2_778
10
5.4828837
20
8.2628999
40
1.8311143
50
245.912586
51
252.6158242
0
ARC
8
DEFAULT_255_2_778
10
5.7655507
20
9.155877
40
2.7677588
50
252.5546663
51
257.7676131
0
ARC
8
DEFAULT_255_2_778
10
6.0051829
20
10.2519127
40
3.8896836
50
257.7386433
51
262.2560449
0
ARC
8
DEFAULT_255_2_778
10
6.1710069
20
11.4745545
40
5.1235194
50
262.2609086
51
267.3094294
0
ARC
8
DEFAULT_255_2_778
10
6.2087656
20
12.1213492
40
5.7713782
50
267.2364102
51
270.0064644
0
ARC
8
DEFAULT_255_2_778
10
6.2159423
20
11.8923205
40
5.5423533
50
269.9325401
51
276.1264943
0
ARC
8
DEFAULT_255_2_778
10
6.3473171
20
10.6573234
40
4.3003889
50
276.1422045
51
280.7499057
0
ARC
8
DEFAULT_255_2_778
10
6.5732154
20
9.4744112
40
3.0961011
50
280.7259529
51
285.8234794
0
ARC
8
DEFAULT_255_2_778
10
6.8541156
20
8.4895492
40
2.0719656
50
285.7762207
51
292.0733366
0
ARC
8
DEFAULT_255_2_778
10
7.1455103
20
7.7753005
40
1.3005657
50
292.0016668
51
300.2389375
0
ARC
8
DEFAULT_255_2_778
10
7.4166841
20
7.3149644
40
0.7663049
50
300.0559477
51
312.4055818
0
ARC
8
DEFAULT_255_2_778
10
7.6516496
20
7.0635532
40
0.4222293
50
311.8694552
51
335.475002
0
ARC
8
DEFAULT_255_2_778
10
7.7547661
20
7.0112699
40
0.3067506
50
336.3648138
51
0.0235693
0
LINE
8
DEFAULT_255_1_234
10
3.6955137
20
-0.6669567
11
3.6955137
21
-1.842
0
LINE
8
DEFAULT_255_1_234
10
3.6955137
20
-1.842
11
3.5461234
21
-1.842
0
LINE
8
DEFAULT_255_1_234
10
3.5461234
20
-1.842
11
3.5461234
21
-0.8516867
0
LINE
8
DEFAULT_255_1_234
10
3.5461234
20
-0.8516867
11
3.2465396
21
-0.9617215
0
LINE
8
DEFAULT_255_1_234
10
3.2465396
20
-0.9617215
11
3.2465396
21
-0.8267883
0
LINE
8
DEFAULT_255_1_234
10
3.2465396
20
-0.8267883
11
3.6722217
21
-0.6669567
0
LINE
8
DEFAULT_255_1_234
10
3.6722217
20
-0.6669567
11
3.6955137
21
-0.6669567
0
ENDSEC
0
EOF