0
SECTION
2
HEADER
9
$MEASUREMENT
70
1
0
ENDSEC
0
SECTION
2
TABLES
0
TABLE
2
LTYPE
0
LTYPE
72
65
70
64
2
CONTINUOUS
3
______
73
0
40
0
0
ENDTAB
0
TABLE
2
LAYER
0
LAYER
2
DEFAULT_255_2_778
70
0
62
255
6
CONTINUOUS
0
LAYER
2
DEFAULT_255_1_388
70
0
62
255
6
CONTINUOUS
0
ENDTAB
0
ENDSEC
0
SECTION
2
ENTITIES
0
LINE
8
DEFAULT_255_2_778
10
6.2095
20
2.5135333
11
6.2095
21
-2.7781667
0
ARC
8
DEFAULT_255_2_778
10
6.2196952
20
5.1629268
40
2.6560309
50
160.7095027
51
180.0775207
0
ARC
8
DEFAULT_255_2_778
10
6.2036206
20
5.1648241
40
2.6402344
50
102.0301591
51
160.6331218
0
ARC
8
DEFAULT_255_2_778
10
6.2077006
20
5.1294408
40
2.6756931
50
89.9621802
51
101.9576865
0
ARC
8
DEFAULT_255_2_778
10
6.2131411
20
5.1497235
40
2.6554123
50
70.3567975
51
90.0792807
0
ARC
8
DEFAULT_255_2_778
10
6.2149767
20
5.1650929
40
2.6403224
50
11.9023555
51
70.2821965
0
ARC
8
DEFAULT_255_2_778
10
6.1794547
20
5.1610699
40
2.6759126
50
359.9628159
51
11.829777
0
ARC
8
DEFAULT_255_2_778
10
6.2001283
20
5.1556623
40
2.655241
50
340.3554002
51
0.0792127
0
ARC
8
DEFAULT_255_2_778
10
6.2152203
20
5.1539583
40
2.6404568
50
281.9019784
51
340.2801285
0
ARC
8
DEFAULT_255_2_778
10
6.2112012
20
5.1894109
40
2.6759781
50
269.962864
51
281.8296308
0
ARC
8
DEFAULT_255_2_778
10
6.2057903
20
5.1685704
40
2.6551397
50
250.3550189
51
270.0793355
0
ARC
8
DEFAULT_255_2_778
10
6.2041162
20
5.1534794
40
2.6403665
50
191.9001656
51
250.2791382
0
ARC
8
DEFAULT_255_2_778
10
6.2398473
20
5.1575979
40
2.676181
50
179.9628467
51
191.8287004
0
LINE
8
DEFAULT_255_2_778
10
3.5636667
20
5.1593333
11
3.5636667
21
5.1593333
0
LINE
8
DEFAULT_255_2_778
10
8.0616167
20
3.3071833
11
4.3574167
21
7.0113833
0
LINE
8
DEFAULT_255_2_778
10
4.3574167
20
7.0113833
11
5.4157167
21
5.1592833
0
LINE
8
DEFAULT_255_2_778
10
5.4157167
20
5.1592833
11
6.2095167
21
5.9530833
0
LINE
8
DEFAULT_255_2_778
10
6.2095167
20
5.9530833
11
4.3574167
21
7.0113833
0
LINE
8
DEFAULT_255_1_388
10
3.7110985
20
-0.5084852
11
3.7110985
21
-1.8304
0
LINE
8
DEFAULT_255_1_388
10
3.7110985
20
-1.8304
11
3.5430355
21
-1.8304
0
LINE
8
DEFAULT_255_1_388
10
3.5430355
20
-1.8304
11
3.5430355
21
-0.716305
0
LINE
8
DEFAULT_255_1_388
10
3.5430355
20
-0.716305
11
3.206006
21
-0.8400934
0
LINE
8
DEFAULT_255_1_388
10
3.206006
20
-0.8400934
11
3.206006
21
-0.6882945
0
LINE
8
DEFAULT_255_1_388
10
3.206006
20
-0.6882945
11
3.6848951
21
-0.5084852
0
LINE
8
DEFAULT_255_1_388
10
3.6848951
20
-0.5084852
11
3.7110985
21
-0.5084852
0
ENDSEC
0
EOF