0
SECTION
2
HEADER
9
$MEASUREMENT
70
1
0
ENDSEC
0
SECTION
2
TABLES
0
TABLE
2
LTYPE
0
LTYPE
72
65
70
64
2
CONTINUOUS
3
______
73
0
40
0
0
ENDTAB
0
TABLE
2
LAYER
0
LAYER
2
DEFAULT_255_2_778
70
0
62
255
6
CONTINUOUS
0
LAYER
2
DEFAULT_255_1_234
70
0
62
255
6
CONTINUOUS
0
ENDTAB
0
ENDSEC
0
SECTION
2
ENTITIES
0
LINE
8
DEFAULT_255_2_778
10
3.5718667
20
5.1594333
11
6.2176667
21
7.8052333
0
LINE
8
DEFAULT_255_2_778
10
6.2176667
20
7.8052333
11
8.8635667
21
5.1594333
0
LINE
8
DEFAULT_255_2_778
10
8.8635667
20
5.1594333
11
6.2176667
21
2.5135333
0
LINE
8
DEFAULT_255_2_778
10
6.2176667
20
2.5135333
11
3.5718667
21
5.1594333
0
LINE
8
DEFAULT_255_2_778
10
3.5718667
20
5.1594
11
8.8635667
21
5.1594
0
LINE
8
DEFAULT_255_2_778
10
6.2177
20
6.6410333
11
6.8527
21
6.6410333
0
LINE
8
DEFAULT_255_2_778
10
6.8527
20
6.6410333
11
6.2177
21
5.1593333
0
LINE
8
DEFAULT_255_2_778
10
6.2177
20
5.1593333
11
5.5827
21
6.6410333
0
LINE
8
DEFAULT_255_2_778
10
5.5827
20
6.6410333
11
6.2177
21
6.6410333
0
LINE
8
DEFAULT_255_2_778
10
6.2177
20
4.1010333
11
6.8527
21
4.1010333
0
LINE
8
DEFAULT_255_2_778
10
6.8527
20
4.1010333
11
6.2177
21
2.6193333
0
LINE
8
DEFAULT_255_2_778
10
6.2177
20
2.6193333
11
5.5827
21
4.1010333
0
LINE
8
DEFAULT_255_2_778
10
5.5827
20
4.1010333
11
6.2177
21
4.1010333
0
LINE
8
DEFAULT_255_2_778
10
6.2177
20
13.0968998
11
6.2177
21
-2.7781002
0
LINE
8
DEFAULT_255_1_234
10
3.7039137
20
-0.6674567
11
3.7039137
21
-1.8425
0
LINE
8
DEFAULT_255_1_234
10
3.7039137
20
-1.8425
11
3.5545234
21
-1.8425
0
LINE
8
DEFAULT_255_1_234
10
3.5545234
20
-1.8425
11
3.5545234
21
-0.8521867
0
LINE
8
DEFAULT_255_1_234
10
3.5545234
20
-0.8521867
11
3.2549396
21
-0.9622215
0
LINE
8
DEFAULT_255_1_234
10
3.2549396
20
-0.9622215
11
3.2549396
21
-0.8272883
0
LINE
8
DEFAULT_255_1_234
10
3.2549396
20
-0.8272883
11
3.6806217
21
-0.6674567
0
LINE
8
DEFAULT_255_1_234
10
3.6806217
20
-0.6674567
11
3.7039137
21
-0.6674567
0
LINE
8
DEFAULT_255_1_234
10
3.9735119
20
10.9295792
11
3.9735119
21
10.8083
0
LINE
8
DEFAULT_255_1_234
10
3.9735119
20
10.8083
11
3.207284
21
10.8083
0
LINE
8
DEFAULT_255_1_234
10
3.207284
20
10.8083
11
3.207284
21
10.9151221
0
LINE
8
DEFAULT_255_1_234
10
3.207284
20
10.9151221
11
3.6120836
21
11.3648995
0
LINE
8
DEFAULT_255_1_234
10
3.3333823
20
11.6331595
11
3.1847952
21
11.6331595
0
LINE
8
DEFAULT_255_1_234
10
3.6996296
20
11.2693218
11
3.3863918
21
10.9295792
0
LINE
8
DEFAULT_255_1_234
10
3.3863918
20
10.9295792
11
3.9735119
21
10.9295792
0
ARC
8
DEFAULT_255_1_234
10
2.263067
20
12.5578527
40
1.8008286
50
318.5132453
51
320.7828378
0
ARC
8
DEFAULT_255_1_234
10
2.7917644
20
12.1275426
40
1.1191493
50
320.7372736
51
323.9737074
0
ARC
8
DEFAULT_255_1_234
10
3.1837501
20
11.8435361
40
0.6350923
50
323.8961724
51
328.6421089
0
ARC
8
DEFAULT_255_1_234
10
3.3884096
20
11.7173031
40
0.3946393
50
328.8299013
51
331.789948
0
ARC
8
DEFAULT_255_1_234
10
3.4881274
20
11.6658509
40
0.2824501
50
331.4255242
51
352.9364833
0
ARC
8
DEFAULT_255_1_234
10
3.5017775
20
11.6627976
40
0.2685315
50
353.2248685
51
0.0169286
0
ARC
8
DEFAULT_255_1_234
10
3.5227652
20
11.665095
40
0.2475536
50
359.4866256
51
15.9339782
0
ARC
8
DEFAULT_255_1_234
10
3.5734637
20
11.6787286
40
0.1950618
50
16.1714718
51
43.5284424
0
ARC
8
DEFAULT_255_1_234
10
3.5811946
20
11.6864573
40
0.184134
50
43.4415429
51
83.1661404
0
ARC
8
DEFAULT_255_1_234
10
3.5677864
20
11.6127771
40
0.258926
50
82.160215
51
90.1505798
0
ARC
8
DEFAULT_255_1_234
10
3.5646291
20
11.5590865
40
0.3126255
50
89.5460705
51
102.5418777
0
ARC
8
DEFAULT_255_1_234
10
3.5403377
20
11.6621665
40
0.2067346
50
102.1739365
51
129.2061916
0
ARC
8
DEFAULT_255_1_234
10
3.5324449
20
11.6746094
40
0.1921118
50
129.7279328
51
135.7542026
0
ARC
8
DEFAULT_255_1_234
10
3.5445977
20
11.6649045
40
0.2075944
50
136.175737
51
166.3674722
0
ARC
8
DEFAULT_255_1_234
10
3.6452896
20
11.6379182
40
0.3118201
50
165.9092917
51
178.8683903
0
ARC
8
DEFAULT_255_1_234
10
3.7317757
20
11.6332179
40
0.3983935
50
178.438168
51
180.0083905
0
ARC
8
DEFAULT_255_1_234
10
3.5916359
20
11.6371231
40
0.4068601
50
163.2878735
51
180.5581814
0
ARC
8
DEFAULT_255_1_234
10
3.5114621
20
11.659184
40
0.3237344
50
133.454115
51
162.9470031
0
ARC
8
DEFAULT_255_1_234
10
3.5293162
20
11.6402
40
0.349795
50
100.7869394
51
133.4384016
0
ARC
8
DEFAULT_255_1_234
10
3.5640934
20
11.4853319
40
0.5084616
50
89.6605301
51
101.3704185
0
ARC
8
DEFAULT_255_1_234
10
3.5707273
20
11.4914496
40
0.502348
50
78.2171172
51
90.4130393
0
ARC
8
DEFAULT_255_1_234
10
3.6062351
20
11.6538637
40
0.3361092
50
55.9268222
51
78.4888551
0
ARC
8
DEFAULT_255_1_234
10
3.6258791
20
11.6877324
40
0.2970617
50
47.9292255
51
55.4054003
0
ARC
8
DEFAULT_255_1_234
10
3.6360352
20
11.6980502
40
0.2825983
50
4.3347696
51
48.0560701
0
ARC
8
DEFAULT_255_1_234
10
3.5264745
20
11.6810601
40
0.393225
50
359.925209
51
5.5967654
0
ARC
8
DEFAULT_255_1_234
10
3.5693637
20
11.6866816
40
0.3503892
50
337.8914096
51
358.9967724
0
ARC
8
DEFAULT_255_1_234
10
3.2980049
20
11.7913706
40
0.6412172
50
326.9135351
51
338.3505194
0
ARC
8
DEFAULT_255_1_234
10
2.8994353
20
12.0468284
40
1.1146189
50
319.6472867
51
327.095818
0
ARC
8
DEFAULT_255_1_234
10
2.5161356
20
12.363
40
1.6114559
50
317.2586784
51
319.9046139
0
ENDSEC
0
EOF