0
SECTION
2
HEADER
9
$MEASUREMENT
70
1
0
ENDSEC
0
SECTION
2
TABLES
0
TABLE
2
LTYPE
0
LTYPE
72
65
70
64
2
CONTINUOUS
3
______
73
0
40
0
0
ENDTAB
0
TABLE
2
LAYER
0
LAYER
2
DEFAULT_255_2_778
70
0
62
255
6
CONTINUOUS
0
LAYER
2
DEFAULT_255_1_234
70
0
62
255
6
CONTINUOUS
0
ENDTAB
0
ENDSEC
0
SECTION
2
ENTITIES
0
LINE
8
DEFAULT_255_2_778
10
10.0545501
20
9.1281499
11
17.9920501
21
9.1281499
0
LINE
8
DEFAULT_255_2_778
10
17.9920501
20
9.1281499
11
17.9920501
21
1.1906499
0
LINE
8
DEFAULT_255_2_778
10
17.9920501
20
1.1906499
11
10.0545501
21
1.1906499
0
LINE
8
DEFAULT_255_2_778
10
10.0545501
20
1.1906499
11
10.0545501
21
9.1281499
0
LINE
8
DEFAULT_255_2_778
10
10.0545417
20
5.1594
11
8.7316417
21
5.1594
0
LINE
8
DEFAULT_255_2_778
10
7.4087417
20
3.8365166
11
8.7316417
21
5.1594166
0
LINE
8
DEFAULT_255_2_778
10
8.7316417
20
5.1594166
11
7.4087417
21
6.4823166
0
LINE
8
DEFAULT_255_2_778
10
7.4087417
20
6.4823166
11
7.4087417
21
3.8365166
0
LINE
8
DEFAULT_255_2_778
10
7.4087251
20
5.1594
11
3.4400251
21
5.1594
0
LINE
8
DEFAULT_255_2_778
10
17.9920834
20
4.8948166
11
18.2860834
21
6.4823166
0
LINE
8
DEFAULT_255_2_778
10
18.2860834
20
6.4823166
11
18.7270834
21
3.8365166
0
LINE
8
DEFAULT_255_2_778
10
18.7270834
20
3.8365166
11
19.1681834
21
6.4823166
0
LINE
8
DEFAULT_255_2_778
10
19.1681834
20
6.4823166
11
19.6091834
21
3.8365166
0
LINE
8
DEFAULT_255_2_778
10
19.6091834
20
3.8365166
11
20.0502834
21
6.4823166
0
LINE
8
DEFAULT_255_2_778
10
20.0502834
20
6.4823166
11
20.4913834
21
3.8365166
0
LINE
8
DEFAULT_255_2_778
10
20.4913834
20
3.8365166
11
20.6378834
21
4.8948166
0
ARC
8
DEFAULT_255_2_778
10
14.0218557
20
3.1764443
40
0.6600157
50
89.871003
51
180.128997
0
ARC
8
DEFAULT_255_2_778
10
14.024749
20
3.1764655
40
0.6599943
50
359.8691577
51
90.1221758
0
ARC
8
DEFAULT_255_2_778
10
14.0247705
20
3.1735295
40
0.6599728
50
269.8759594
51
0.1240406
0
ARC
8
DEFAULT_255_2_778
10
14.0218345
20
3.1735508
40
0.6599942
50
179.8778094
51
270.1308423
0
LINE
8
DEFAULT_255_2_778
10
13.3618417
20
3.1749583
11
13.3618417
21
3.1749583
0
ARC
8
DEFAULT_255_2_778
10
11.3760557
20
7.1452443
40
0.6600157
50
89.871003
51
180.128997
0
ARC
8
DEFAULT_255_2_778
10
11.378949
20
7.1452655
40
0.6599943
50
359.8691577
51
90.1221758
0
ARC
8
DEFAULT_255_2_778
10
11.3789705
20
7.1423295
40
0.6599728
50
269.8759594
51
0.1240406
0
ARC
8
DEFAULT_255_2_778
10
11.3760345
20
7.1423508
40
0.6599942
50
179.8778094
51
270.1308423
0
LINE
8
DEFAULT_255_2_778
10
10.7160417
20
7.1437583
11
10.7160417
21
7.1437583
0
ARC
8
DEFAULT_255_2_778
10
16.6676557
20
7.1452443
40
0.6600157
50
89.871003
51
180.128997
0
ARC
8
DEFAULT_255_2_778
10
16.670549
20
7.1452655
40
0.6599943
50
359.8691577
51
90.1221758
0
ARC
8
DEFAULT_255_2_778
10
16.6705705
20
7.1423295
40
0.6599728
50
269.8759594
51
0.1240406
0
ARC
8
DEFAULT_255_2_778
10
16.6676345
20
7.1423508
40
0.6599942
50
179.8778094
51
270.1308423
0
LINE
8
DEFAULT_255_2_778
10
16.0076417
20
7.1437583
11
16.0076417
21
7.1437583
0
LINE
8
DEFAULT_255_2_778
10
11.3775
20
13.0968333
11
11.3775
21
7.8051333
0
LINE
8
DEFAULT_255_2_778
10
16.6691
20
13.0968333
11
16.6691
21
7.8051333
0
LINE
8
DEFAULT_255_2_778
10
14.0233
20
2.5135333
11
14.0233
21
-2.7781667
0
LINE
8
DEFAULT_255_2_778
10
13.4941584
20
3.5719083
11
11.6420584
21
6.4823083
0
LINE
8
DEFAULT_255_1_234
10
11.5097137
20
-0.6674567
11
11.5097137
21
-1.8425
0
LINE
8
DEFAULT_255_1_234
10
11.5097137
20
-1.8425
11
11.3603234
21
-1.8425
0
LINE
8
DEFAULT_255_1_234
10
11.3603234
20
-1.8425
11
11.3603234
21
-0.8521867
0
LINE
8
DEFAULT_255_1_234
10
11.3603234
20
-0.8521867
11
11.0607396
21
-0.9622215
0
LINE
8
DEFAULT_255_1_234
10
11.0607396
20
-0.9622215
11
11.0607396
21
-0.8272883
0
LINE
8
DEFAULT_255_1_234
10
11.0607396
20
-0.8272883
11
11.4864217
21
-0.6674567
0
LINE
8
DEFAULT_255_1_234
10
11.4864217
20
-0.6674567
11
11.5097137
21
-0.6674567
0
LINE
8
DEFAULT_255_1_234
10
9.2001119
20
10.9295792
11
9.2001119
21
10.8083
0
LINE
8
DEFAULT_255_1_234
10
9.2001119
20
10.8083
11
8.433884
21
10.8083
0
LINE
8
DEFAULT_255_1_234
10
8.433884
20
10.8083
11
8.433884
21
10.9151221
0
LINE
8
DEFAULT_255_1_234
10
8.433884
20
10.9151221
11
8.8386836
21
11.3648995
0
LINE
8
DEFAULT_255_1_234
10
8.5599823
20
11.6331595
11
8.4113952
21
11.6331595
0
LINE
8
DEFAULT_255_1_234
10
8.9262296
20
11.2693218
11
8.6129918
21
10.9295792
0
LINE
8
DEFAULT_255_1_234
10
8.6129918
20
10.9295792
11
9.2001119
21
10.9295792
0
ARC
8
DEFAULT_255_1_234
10
7.489667
20
12.5578527
40
1.8008286
50
318.5132453
51
320.7828378
0
ARC
8
DEFAULT_255_1_234
10
8.0183644
20
12.1275426
40
1.1191493
50
320.7372736
51
323.9737074
0
ARC
8
DEFAULT_255_1_234
10
8.4103501
20
11.8435361
40
0.6350923
50
323.8961724
51
328.6421089
0
ARC
8
DEFAULT_255_1_234
10
8.6150096
20
11.7173031
40
0.3946393
50
328.8299013
51
331.789948
0
ARC
8
DEFAULT_255_1_234
10
8.7147274
20
11.6658509
40
0.2824501
50
331.4255242
51
352.9364833
0
ARC
8
DEFAULT_255_1_234
10
8.7283775
20
11.6627976
40
0.2685315
50
353.2248685
51
0.0169286
0
ARC
8
DEFAULT_255_1_234
10
8.7493652
20
11.665095
40
0.2475536
50
359.4866256
51
15.9339782
0
ARC
8
DEFAULT_255_1_234
10
8.8000637
20
11.6787286
40
0.1950618
50
16.1714718
51
43.5284424
0
ARC
8
DEFAULT_255_1_234
10
8.8077946
20
11.6864573
40
0.184134
50
43.4415429
51
83.1661404
0
ARC
8
DEFAULT_255_1_234
10
8.7943864
20
11.6127771
40
0.258926
50
82.160215
51
90.1505798
0
ARC
8
DEFAULT_255_1_234
10
8.7912291
20
11.5590865
40
0.3126255
50
89.5460705
51
102.5418777
0
ARC
8
DEFAULT_255_1_234
10
8.7669377
20
11.6621665
40
0.2067346
50
102.1739365
51
129.2061916
0
ARC
8
DEFAULT_255_1_234
10
8.7590449
20
11.6746094
40
0.1921118
50
129.7279328
51
135.7542026
0
ARC
8
DEFAULT_255_1_234
10
8.7711977
20
11.6649045
40
0.2075944
50
136.175737
51
166.3674722
0
ARC
8
DEFAULT_255_1_234
10
8.8718896
20
11.6379182
40
0.3118201
50
165.9092917
51
178.8683903
0
ARC
8
DEFAULT_255_1_234
10
8.9583757
20
11.6332179
40
0.3983935
50
178.438168
51
180.0083905
0
ARC
8
DEFAULT_255_1_234
10
8.8182359
20
11.6371231
40
0.4068601
50
163.2878735
51
180.5581814
0
ARC
8
DEFAULT_255_1_234
10
8.7380621
20
11.659184
40
0.3237344
50
133.454115
51
162.9470031
0
ARC
8
DEFAULT_255_1_234
10
8.7559162
20
11.6402
40
0.349795
50
100.7869394
51
133.4384016
0
ARC
8
DEFAULT_255_1_234
10
8.7906934
20
11.4853319
40
0.5084616
50
89.6605301
51
101.3704185
0
ARC
8
DEFAULT_255_1_234
10
8.7973273
20
11.4914496
40
0.502348
50
78.2171172
51
90.4130393
0
ARC
8
DEFAULT_255_1_234
10
8.8328351
20
11.6538637
40
0.3361092
50
55.9268222
51
78.4888551
0
ARC
8
DEFAULT_255_1_234
10
8.8524791
20
11.6877324
40
0.2970617
50
47.9292255
51
55.4054003
0
ARC
8
DEFAULT_255_1_234
10
8.8626352
20
11.6980502
40
0.2825983
50
4.3347696
51
48.0560701
0
ARC
8
DEFAULT_255_1_234
10
8.7530745
20
11.6810601
40
0.393225
50
359.925209
51
5.5967654
0
ARC
8
DEFAULT_255_1_234
10
8.7959637
20
11.6866816
40
0.3503892
50
337.8914096
51
358.9967724
0
ARC
8
DEFAULT_255_1_234
10
8.5246049
20
11.7913706
40
0.6412172
50
326.9135351
51
338.3505194
0
ARC
8
DEFAULT_255_1_234
10
8.1260353
20
12.0468284
40
1.1146189
50
319.6472867
51
327.095818
0
ARC
8
DEFAULT_255_1_234
10
7.7427356
20
12.363
40
1.6114559
50
317.2586784
51
319.9046139
0
LINE
8
DEFAULT_255_1_234
10
9.5735877
20
11.3440169
11
9.5735877
21
11.4652962
0
LINE
8
DEFAULT_255_1_234
10
9.5735877
20
11.4652962
11
9.6852289
21
11.4652962
0
LINE
8
DEFAULT_255_1_234
10
9.4948767
20
11.6709087
11
9.3462895
21
11.6709087
0
LINE
8
DEFAULT_255_1_234
10
9.3358482
20
11.1167187
11
9.4852386
21
11.1167187
0
LINE
8
DEFAULT_255_1_234
10
9.6852289
20
11.3440169
11
9.5735877
21
11.3440169
0
ARC
8
DEFAULT_255_1_234
10
9.6823155
20
11.8045713
40
0.3392876
50
270.4919872
51
281.8951556
0
ARC
8
DEFAULT_255_1_234
10
9.7064417
20
11.6943702
40
0.2264817
50
281.6691735
51
301.2943132
0
ARC
8
DEFAULT_255_1_234
10
9.7234627
20
11.6632304
40
0.1910381
50
301.7833094
51
311.7545298
0
ARC
8
DEFAULT_255_1_234
10
9.7326203
20
11.6530748
40
0.1773635
50
311.7323931
51
354.2802411
0
ARC
8
DEFAULT_255_1_234
10
9.6599828
20
11.6655722
40
0.2509385
50
353.0937916
51
0.1181479
0
ARC
8
DEFAULT_255_1_234
10
9.6138613
20
11.6703386
40
0.2970898
50
359.1805295
51
15.0453146
0
ARC
8
DEFAULT_255_1_234
10
9.748445
20
11.7095992
40
0.1569564
50
13.9577229
51
77.6713066
0
ARC
8
DEFAULT_255_1_234
10
9.7097979
20
11.5710949
40
0.3006298
50
76.1116566
51
90.7026153
0
ARC
8
DEFAULT_255_1_234
10
9.7038817
20
11.5984545
40
0.2732568
50
89.5324876
51
103.531937
0
ARC
8
DEFAULT_255_1_234
10
9.6838261
20
11.6783884
40
0.1908508
50
103.2931773
51
133.5619022
0
ARC
8
DEFAULT_255_1_234
10
9.679375
20
11.6843375
40
0.1834746
50
133.8349307
51
173.5344437
0
ARC
8
DEFAULT_255_1_234
10
9.7516793
20
11.6715213
40
0.2568033
50
172.5096846
51
180.1366907
0
ARC
8
DEFAULT_255_1_234
10
9.6565687
20
11.6749622
40
0.3103056
50
155.3484492
51
180.7484736
0
ARC
8
DEFAULT_255_1_234
10
9.6516776
20
11.6720846
40
0.3070957
50
131.5744599
51
154.4798489
0
ARC
8
DEFAULT_255_1_234
10
9.6829923
20
11.640431
40
0.3515643
50
96.9875458
51
131.9690667
0
ARC
8
DEFAULT_255_1_234
10
9.7049403
20
11.5158636
40
0.4779224
50
89.8596053
51
97.7825159
0
ARC
8
DEFAULT_255_1_234
10
9.7097466
20
11.4896616
40
0.5041361
50
78.3655447
51
90.4131539
0
ARC
8
DEFAULT_255_1_234
10
9.7455384
20
11.6555887
40
0.3344039
50
56.6229102
51
78.638727
0
ARC
8
DEFAULT_255_1_234
10
9.7670328
20
11.6931805
40
0.2912001
50
47.0253525
51
56.0854072
0
ARC
8
DEFAULT_255_1_234
10
9.7690108
20
11.6971223
40
0.2869704
50
10.9208013
51
46.7778124
0
ARC
8
DEFAULT_255_1_234
10
9.6326174
20
11.6655857
40
0.426899
50
359.6364486
51
11.6087304
0
ARC
8
DEFAULT_255_1_234
10
9.8161018
20
11.6640752
40
0.243409
50
332.3549906
51
359.7179418
0
ARC
8
DEFAULT_255_1_234
10
9.751062
20
11.6949142
40
0.3153459
50
325.2333722
51
332.8745602
0
ARC
8
DEFAULT_255_1_234
10
9.7663244
20
11.6842828
40
0.2967456
50
292.9802137
51
325.2392345
0
ARC
8
DEFAULT_255_1_234
10
9.7388617
20
11.7376863
40
0.3566604
50
292.5402179
51
293.6924929
0
ARC
8
DEFAULT_255_1_234
10
9.7781213
20
11.0922091
40
0.3307468
50
57.6435486
51
72.8625112
0
ARC
8
DEFAULT_255_1_234
10
9.8135713
20
11.1496549
40
0.2632492
50
36.7248896
51
57.4697979
0
ARC
8
DEFAULT_255_1_234
10
9.8124346
20
11.150922
40
0.2634081
50
8.0545065
51
36.356114
0
ARC
8
DEFAULT_255_1_234
10
9.7261531
20
11.1354174
40
0.3510261
50
359.8320645
51
8.5869982
0
ARC
8
DEFAULT_255_1_234
10
9.6886307
20
11.1306101
40
0.3885653
50
343.9829931
51
0.5571613
0
ARC
8
DEFAULT_255_1_234
10
9.7772504
20
11.1063438
40
0.2966924
50
311.6359546
51
343.7651759
0
ARC
8
DEFAULT_255_1_234
10
9.7394074
20
11.1490102
40
0.3537231
50
279.7829875
51
311.6255694
0
ARC
8
DEFAULT_255_1_234
10
9.709285
20
11.292728
40
0.5004971
50
269.7286406
51
280.3856417
0
ARC
8
DEFAULT_255_1_234
10
9.7030922
20
11.2885996
40
0.4963778
50
256.6828919
51
270.4412052
0
ARC
8
DEFAULT_255_1_234
10
9.6692218
20
11.1501394
40
0.3538406
50
229.4223008
51
256.8556159
0
ARC
8
DEFAULT_255_1_234
10
9.6277611
20
11.1034736
40
0.2914296
50
181.818294
51
229.6455059
0
ARC
8
DEFAULT_255_1_234
10
9.7317567
20
11.1165496
40
0.3959084
50
179.9755256
51
183.2323064
0
ARC
8
DEFAULT_255_1_234
10
9.7145313
20
11.1145037
40
0.2293034
50
179.4465117
51
196.2869258
0
ARC
8
DEFAULT_255_1_234
10
9.6657721
20
11.1011651
40
0.1787621
50
196.5661473
51
227.705904
0
ARC
8
DEFAULT_255_1_234
10
9.6821816
20
11.1195155
40
0.2033784
50
227.7652068
51
257.8762805
0
ARC
8
DEFAULT_255_1_234
10
9.7046786
20
11.2138156
40
0.3003081
50
257.4584385
51
270.426602
0
ARC
8
DEFAULT_255_1_234
10
9.7092352
20
11.2427996
40
0.329292
50
269.5962073
51
280.8789248
0
ARC
8
DEFAULT_255_1_234
10
9.7321881
20
11.1281685
40
0.2123908
50
280.6346389
51
299.8595945
0
ARC
8
DEFAULT_255_1_234
10
9.7512788
20
11.0919212
40
0.171457
50
300.3576302
51
314.5517981
0
ARC
8
DEFAULT_255_1_234
10
9.7429848
20
11.0979919
40
0.1816095
50
315.0728369
51
345.0431014
0
ARC
8
DEFAULT_255_1_234
10
9.6506662
20
11.1248841
40
0.2777492
50
344.5986631
51
357.9269593
0
ARC
8
DEFAULT_255_1_234
10
9.5610989
20
11.1310276
40
0.3674917
50
357.4748886
51
0.0231117
0
ARC
8
DEFAULT_255_1_234
10
9.6634098
20
11.1334679
40
0.2651907
50
359.5047933
51
13.4239635
0
ARC
8
DEFAULT_255_1_234
10
9.7500741
20
11.1556478
40
0.1757509
50
12.9498199
51
48.7551375
0
ARC
8
DEFAULT_255_1_234
10
9.7318475
20
11.13074
40
0.2065134
50
49.5088623
51
72.1836453
0
ARC
8
DEFAULT_255_1_234
10
9.6960628
20
11.0245291
40
0.3185836
50
71.9010081
51
84.3554254
0
ARC
8
DEFAULT_255_1_234
10
9.679926
20
10.8884326
40
0.4556151
50
84.0193428
51
89.333121
0
LINE
8
DEFAULT_255_1_234
10
5.1791344
20
6.5528091
11
4.9036458
21
6.5528091
0
LINE
8
DEFAULT_255_1_234
10
4.9036458
20
6.5528091
11
4.9036458
21
6.095
0
LINE
8
DEFAULT_255_1_234
10
4.9036458
20
6.095
11
4.7494364
21
6.095
0
LINE
8
DEFAULT_255_1_234
10
4.7494364
20
6.095
11
4.7494364
21
7.2644211
0
LINE
8
DEFAULT_255_1_234
10
4.7494364
20
7.2644211
11
5.1807407
21
7.2644211
0
LINE
8
DEFAULT_255_1_234
10
4.9036458
20
7.1375196
11
4.9036458
21
6.6789074
0
LINE
8
DEFAULT_255_1_234
10
4.9036458
20
6.6789074
11
5.1807407
21
6.6789074
0
LINE
8
DEFAULT_255_1_234
10
5.1895756
20
7.1375196
11
4.9036458
21
7.1375196
0
ARC
8
DEFAULT_255_1_234
10
5.1849534
20
6.6585195
40
0.6059162
50
78.8378113
51
90.3983573
0
ARC
8
DEFAULT_255_1_234
10
5.2265548
20
6.8605879
40
0.3996205
50
58.9632738
51
79.0810598
0
ARC
8
DEFAULT_255_1_234
10
5.256709
20
6.9165721
40
0.3361177
50
48.0197965
51
58.447194
0
ARC
8
DEFAULT_255_1_234
10
5.2655951
20
6.9251225
40
0.3238191
50
3.3375044
51
48.1766626
0
ARC
8
DEFAULT_255_1_234
10
5.142579
20
6.9074171
40
0.4477806
50
359.9477528
51
4.6829065
0
ARC
8
DEFAULT_255_1_234
10
5.1549107
20
6.9031628
40
0.4354656
50
346.1877825
51
0.5060252
0
ARC
8
DEFAULT_255_1_234
10
5.2907975
20
6.8678731
40
0.295089
50
310.8831995
51
346.5426355
0
ARC
8
DEFAULT_255_1_234
10
5.2599395
20
6.9095695
40
0.3468331
50
286.6925341
51
310.2288297
0
ARC
8
DEFAULT_255_1_234
10
5.2030226
20
7.0885882
40
0.5346654
50
274.6850312
51
287.0245141
0
ARC
8
DEFAULT_255_1_234
10
5.1804949
20
7.3094932
40
0.7566852
50
269.8969846
51
275.018904
0
ARC
8
DEFAULT_255_1_234
10
5.183254
20
7.1015707
40
0.4226708
50
269.6593078
51
279.4153575
0
ARC
8
DEFAULT_255_1_234
10
5.2089815
20
6.9525133
40
0.2714146
50
279.2049762
51
294.9900808
0
ARC
8
DEFAULT_255_1_234
10
5.2380141
20
6.8877508
40
0.2004525
50
295.2888114
51
311.2911209
0
ARC
8
DEFAULT_255_1_234
10
5.2451035
20
6.877222
40
0.1878703
50
311.7854996
51
347.2861051
0
ARC
8
DEFAULT_255_1_234
10
5.1467194
20
6.9025092
40
0.2894234
50
346.6893224
51
0.1059443
0
ARC
8
DEFAULT_255_1_234
10
5.0712089
20
6.9053685
40
0.3649409
50
359.6350983
51
0.0053152
0
ARC
8
DEFAULT_255_1_234
10
5.1682417
20
6.9078937
40
0.2679199
50
359.4672059
51
15.5933957
0
ARC
8
DEFAULT_255_1_234
10
5.2307306
20
6.9247779
40
0.2031932
50
15.7442113
51
46.6203375
0
ARC
8
DEFAULT_255_1_234
10
5.2159527
20
6.9077484
40
0.2257226
50
46.8628658
51
75.6676503
0
ARC
8
DEFAULT_255_1_234
10
5.1865347
20
6.8018718
40
0.3355939
50
75.276167
51
88.2915297
0
ARC
8
DEFAULT_255_1_234
10
5.1807054
20
6.7140524
40
0.4235602
50
87.8575022
51
88.8000139
0
ENDSEC
0
EOF